» » »

Terminator Tabs (ver.3)

Artists:  A B C D E F G H I J K L M N O P Q R S T U V W X Y Z # 

Terminator Tabs (ver.3)

Theme Songs
Rating:
0/5 (0 votes)

Hard to play? Try these video lessons and learn fast.
                "(2)
This is extremley simple but very effective at the same time. Especially sounds cool if you add power chords underneath the piece or play an octave higher. ENJOY!

Intro
|----------------------------------|
|----------------------------------|
|---x--x----x----x--x--------------|
|---2--2----2----2--2--------------|
|---2--2----2----2--2--------------|
|---x--x----x----x--x--------------|

Main Theme
|------------------------------------------------------|
|---------------------------------------------12-10----|
|----9-11-12--12-11--------9-11-12---11----------------|
|-------------------12--5-----------------12-----------|
|------------------------------------------------------|
|------------------------------------------------------|

|------------------------------------------------------|
|------------------------------------------------------|
|----9-11-12--12-11------------------------------------|
|-------------------12--7--5---5-4-2-------------------|
|----------------------------7-------------------------|
|------------------------------------------------------|

Power Chords (if needed)

|----------------------------------------------------|
|----------------------------------------------------|
|----------------------------------------------------|
|--9---5-------9--7--5---------5---4----2------------|
|--7---3-------7--5--3----7----3---2----0------------|
|-------------------------5--------------------------|
Play in the correct time


--------->tomallen579<---------
"            
Hard to play? Try these video lessons and learn fast. | Correct




comments powered by Disqus
↑ Back to top | Tablatures and chords are parodies/interpretations of the original songs. You may use it for private study, scholarship, research or language learning purposes only