» » »

Theme Songs, Star Wars Bass tabs (ver.2)

Artists:  A B C D E F G H I J K L M N O P Q R S T U V W X Y Z # 

Star Wars Bass tabs (ver.2)

Theme Songs Tabs
Rating:
0/5 (0 votes)
Star Wars lessons Tabs too difficult? Try these video lessons and learn fast
                (Theme)
Star Wars Main Theme

Standard tuning (E,A,D,G)

Right well this is pretty much an extension of all the other tabs i've seen, as most people don't bother to tab the bit that comes after the first riff. Happy bassing!

Riff 1

G:------------------5---------5-----------
D:----------5-3-2-0---5-3-2-0---5-3-2-3-0-      x1
A:--------3-------------------------------
E:--3-3-3---------------------------------

Riff 2

G:------------------5---------5---------7
D:----------5-3-2-0---5-3-2-0---5-3-2-3--
A:--------3------------------------------       x1
E:--3-3-3--------------------------------

Riff 3

G:----------3-2-0-----0-2-0-----
D:----------------3-3-------0-2-
A:--3-3-3-5---------------------                x1
E:------------------------------

Riff 4

G:----------3-2-0---5-0-
D:----------------3-----
A:--3-3-3-5-------------                        x1
E:----------------------

Then Riff 3 again

Riff 5 (not entirely sure about this, it was the closest i could get)

G:--9-9-10-9-7-5-3-2-0-5-
D:-----------------------
A:-----------------------                       x1
E:-----------------------

Playing Order :

Riff 1 x1
Riff 2 x1
Riff 3 x1
Riff 4 x1
Riff 3 x1
Riff 5 x1
            
Submit corrections

comments powered by Disqus
↑ Back to top | Theme Songs Bass for Star Wars. Lyrics for acoustic guitar and electric guitar. Tablatures and chords are parodies/interpretations of the original songs. You may use it for private study, scholarship, research or language learning purposes only