» » »

Star Wars Bass tabs (ver.5)

Artists:  A B C D E F G H I J K L M N O P Q R S T U V W X Y Z # 

Star Wars Bass tabs (ver.5)

Theme Songs
Rating:
0/5 (0 votes)

Hard to play? Try these video lessons and learn fast.
                Star Wars Imperial March

Standard tuning (E,A,D,G)

This is all my own work, as i couldn't find a tab for this tune anywhere! happy bassing

Riff 1

G:---------------------------------------
D:---------------------------------------
A:----------2-----2---6-6-6-7-2-----2----             x1
E:--4-4-4-0---4-0---4-----------4-0---4--

Riff 2

G:-------------------------------------------------
D:--6---6-5-4-3-2-3--------------------------------
A:--------------------6-5-4-3-2-3---2---2-----2----   x1
E:----4-------------4-------------4---0---4-0---4--

Repeat as many times as u like :)
            
Hard to play? Try these video lessons and learn fast. | Correct




comments powered by Disqus
↑ Back to top | Tablatures and chords are parodies/interpretations of the original songs. You may use it for private study, scholarship, research or language learning purposes only