» » »

Theme Songs, Simpsons Tabs (ver.1)

Artists:  A B C D E F G H I J K L M N O P Q R S T U V W X Y Z # 

Simpsons Tabs (ver.1)

Theme Songs Tabs
 Rating:
4/5 (4 votes)
Simpsons lessons Tabs too difficult? Try these video lessons and learn fast
                
|---0-2-5-3-------------------------|
|-1---------1---------------------1-|
|-------------2------0------0-333---|
|---------------4444---4444---------|
|-----------------------------------|
|-----------------------------------|

|---0-2-5-3-------------------------|
|-1---------1---------------------1-|
|-------------2------0------0-333---|
|---------------4444---4444---------|
|-----------------------------------|
|-----------------------------------|
            
Submit corrections

comments powered by Disqus
↑ Back to top | Theme Songs Tabs for Simpsons. Lyrics for acoustic guitar and electric guitar. Tablatures and chords are parodies/interpretations of the original songs. You may use it for private study, scholarship, research or language learning purposes only