>
 >
Raw 1

Raw 1 Bass Tabs

Theme Songs - Raw 1 chords, tabs, tablatures, lyrics

Guitar lessons | Add/correct | Request | Top 50 tabs Artists:  A B C D E F G H I J K L M N O P Q R S T U V W X Y Z 0-9

Raw 1 Bass Tabs – Theme Songs

CD, Sheet music, Poster

Do you like Raw 1? Share with your friends now
Bass TabsBass Tabs v2
Rawhide

|----------------0-------1-------|----------------0-------1-------|
|--------------------------------|--------------------------------|
|4-------------------------------|4-------------------------------|
|--------------------------------|--------------------------------|

|----------------0-------1-------|----------------0-------1-------|
|--------------------------------|--------------------------------|
|4-------------------------------|4-------------------------------|
|--------------------------------|--------------------------------|

|----------------0-------1-------|----------------0-------1-------|
|--------------------------------|--------------------------------|
|4-------------------------------|4-------------------------------|
|--------------------------------|--------------------------------|

|----------------0-------1-------|----------------0-------1-------|
|--------------------------------|--------------------------------|
|4-------------------------------|4-------------------------------|
|--------------------------------|--------------------------------|

|----------------0-------1-------|----------------0-------1-------|
|--------------------------------|--------------------------------|
|--------------------------------|4-------------------------------|
|--------------------------------|--------------------------------|

|----------------0-------1-------|----------------0-------1-------|
|--------------------------------|--------------------------------|
|4-------------------------------|4-------------------------------|
|--------------------------------|--------------------------------|

|----------------0-------1-------|----------------0-------1-------|
|--------------------------------|--------------------------------|
|4-------------------------------|4-------------------------------|
|--------------------------------|--------------------------------|

|------------------------1-------|----------------0-------1-------|
|----------------5---------------|--------------------------------|
|4-------------------------------|4-------------------------------|
|--------------------------------|--------------------------------|

|----------------0-------1-------|----------------0-------1-------|
|--------------------------------|--------------------------------|
|4-------------------------------|4-------------------------------|
|--------------------------------|--------------------------------|

|----------------0-------1-------|----------------3-------4-------|
|--------------------------------|--------------------------------|
|4-------------------------------|4-------------------------------|
|--------------------------------|--------------------------------|

|----------------3-------4-------|----------------3-------4-------|
|2-------------------------------|2-------------------------------|
|--------------------------------|--------------------------------|
|--------------------------------|--------------------------------|

|----------------3-------4-------|----------------0-------1-------|
|2-------------------------------|2-------------------------------|
|--------------------------------|--------------------------------|
|--------------------------------|--------------------------------|

|----------------0-------1-------|----------------1-------0-------|
|--------------------------------|--------------------------------|
|4-------------------------------|4-------------------------------|
|--------------------------------|--------------------------------|

|----------------4---------------|----------------6-------5-------|
|4-------------------------------|--------------------------------|
|--------------------------------|4-------------------------------|
|--------------------------------|--------------------------------|

|4---------------4---------------|2---------------2---------------|
|--------------------------------|--------------------------------|
|--------------------------------|--------------------------------|
|--------------------------------|--------------------------------|

|1-------------------------------|1---------------4-------5-------|
|----------------1---------------|--------------------------------|
|--------------------------------|--------------------------------|
|--------------------------------|--------------------------------|

|6---------------1---------------|6---------------1---------------|
|--------------------------------|--------------------------------|
|--------------------------------|--------------------------------|
|--------------------------------|--------------------------------|

|----------------4---------------|--------------------------------|
|4-------------------------------|--------------------------------|
|--------------------------------|4---------------4---------------|
|--------------------------------|--------------------------------|

|----------------4---------------|6---------------4---------------|
|4-------------------------------|--------------------------------|
|--------------------------------|--------------------------------|
|--------------------------------|--------------------------------|

|----------------0-------1-------|----------------0-------1-------|
|--------------------------------|--------------------------------|
|4-------------------------------|4-------------------------------|
|--------------------------------|--------------------------------|

|--------------------------------|1---------------1---------------|
|----------------2-------4-------|--------------------------------|
|4-------------------------------|--------------------------------|
|--------------------------------|--------------------------------|

|--------------------------------|1---------------1---------------|
|----------------2-------4-------|--------------------------------|
|4-------------------------------|--------------------------------|
|--------------------------------|--------------------------------|

|--------------------------------|1---------------1---------------|
|----------------2-------4-------|--------------------------------|
|4-------------------------------|--------------------------------|
|--------------------------------|--------------------------------|

|----------------0-------1-------|2---------------1---------------|
|--------------------------------|--------------------------------|
|4-------------------------------|--------------------------------|
|--------------------------------|--------------------------------|

|----------------0-------1-------|----------------0-------1-------|
|--------------------------------|--------------------------------|
|4-------------------------------|4-------------------------------|
|--------------------------------|--------------------------------|

|----------------1-------2-------|----------------1-------2-------|
|--------------------------------|0-------------------------------|
|4-------------------------------|--------------------------------|
|--------------------------------|--------------------------------|

|----------------1-------2-------|----------------1-------2-------|
|0-------------------------------|0-------------------------------|
|--------------------------------|--------------------------------|
|--------------------------------|--------------------------------|

|----------------1-------2-------|----------------1-------2-------|
|0-------------------------------|0-------------------------------|
|--------------------------------|--------------------------------|
|--------------------------------|--------------------------------|

|----------------1-------2-------|----------------1-------2-------|
|0-------------------------------|0-------------------------------|
|--------------------------------|--------------------------------|
|--------------------------------|--------------------------------|

|----------------4-------5-------|----------------4-------5-------|
|0-------------------------------|3-------------------------------|
|--------------------------------|--------------------------------|
|--------------------------------|--------------------------------|

|----------------4-------5-------|----------------4-------5-------|
|3-------------------------------|3-------------------------------|
|--------------------------------|--------------------------------|
|--------------------------------|--------------------------------|

|----------------1-------2-------|----------------1-------2-------|
|3-------------------------------|0-------------------------------|
|--------------------------------|--------------------------------|
|--------------------------------|--------------------------------|

|----------------2-------1-------|0---------------5---------------|
|0-------------------------------|--------------------------------|
|--------------------------------|--------------------------------|
|--------------------------------|--------------------------------|

|----------------7-------6-------|5---------------5---------------|
|0-------------------------------|--------------------------------|
|--------------------------------|--------------------------------|
|--------------------------------|--------------------------------|

|3---------------3---------------|2-------------------------------|
|--------------------------------|----------------2---------------|
|--------------------------------|--------------------------------|
|--------------------------------|--------------------------------|

|2---------------5-------6-------|7---------------2---------------|
|--------------------------------|--------------------------------|
|--------------------------------|--------------------------------|
|--------------------------------|--------------------------------|


|7---------------2---------------|0---------------5---------------|
|--------------------------------|--------------------------------|
|--------------------------------|--------------------------------|
|--------------------------------|--------------------------------|

|--------------------------------|0---------------5---------------|
|----------------0---------------|--------------------------------|
|--------------------------------|--------------------------------|
|--------------------------------|--------------------------------|

|----------------5---------------|----------------1-------2-------|
|--------------------------------|0-------------------------------|
|--------------------------------|--------------------------------|
|--------------------------------|--------------------------------|

|----------------1-------2-------|------------------------0-------|
|0-------------------------------|0---------------3---------------|
|--------------------------------|--------------------------------|
|--------------------------------|--------------------------------|

|2---------------2---------------|------------------------0-------|
|--------------------------------|0---------------3---------------|
|--------------------------------|--------------------------------|
|--------------------------------|--------------------------------|

|2---------------2---------------|------------------------0-------|
|--------------------------------|0---------------3---------------|
|--------------------------------|--------------------------------|
|--------------------------------|--------------------------------|

|2---------------2---------------|----------------1-------2-------|
|--------------------------------|0-------------------------------|
|--------------------------------|--------------------------------|
|--------------------------------|--------------------------------|

|3---------------2---------------|----------------1-------2-------|
|--------------------------------|0-------------------------------|
|--------------------------------|--------------------------------|
|--------------------------------|--------------------------------|

|----------------1-------2-------|----------------1-------2-------|
|0-------------------------------|0-------------------------------|
|--------------------------------|--------------------------------|
|--------------------------------|--------------------------------|

|----------------1-------2-------|----------------1-------2-------|
|0-------------------------------|--------------------------------|
|--------------------------------|--------------------------------|
|--------------------------------|--------------------------------|

|----------------1-------2-------|----------------1-------2-------|
|0-------------------------------|0-------------------------------|
|--------------------------------|--------------------------------|
|--------------------------------|--------------------------------|

|----------------1-------2-------|----------------1-------2-------|
|0-------------------------------|0-------------------------------|
|--------------------------------|--------------------------------|
|--------------------------------|--------------------------------|


|----------------1-------2-------|----------------1-------2-------|
|0-------------------------------|0-------------------------------|
|--------------------------------|--------------------------------|
|--------------------------------|--------------------------------|

|----------------1-------2-------|----------------1-------2-------|
|0-------------------------------|--------------------------------|
|--------------------------------|--------------------------------|
|--------------------------------|--------------------------------|

  
|----------------1-------2-------|--------------------------------|
|0-------------------------------|0-------------------------------|
|--------------------------------|--------------------------------|
|--------------------------------|--------------------------------|





Comments


Popular Theme Songs tabs & chords
Deck The Hall 1 Bass Tabs
Happy Birthday 2 Bass Tabs
In The Jungle Bass Tabs
Old F1 Theme Tune Fleetwood Mac Bass Tabs
Old Macdonald 1 Bass Tabs
Umpa Lumpa Song Bass Tabs
X - Files Bass Tabs
Dr. Phil Theme Tabs
Lotr:Mayitbe#18 Tabs
Simpsons Opening Tune Tabs


Song lyrics



↑ Back to top | Tablatures and chords are parodies/interpretations of the original songs. You may use it for private study, scholarship, research or language learning purposes only
© 2014 AZChords.com Contact us | Privacy policy | DMCA | Add/correct tabs | Request tabs | Top 50 tabs