» » »

Oh Canada Bass tabs (ver.1)

Artists:  A B C D E F G H I J K L M N O P Q R S T U V W X Y Z # 

Oh Canada Bass tabs (ver.1)

Theme Songs
Rating:
0/5 (0 votes)

Hard to play? Try these video lessons and learn fast.
                G:----------------------------------------
D:----------------------------------------
A:-2---5-5 ----0---2---3-5-7-0--------
E:-----------3----------------------------

G:--------------------------------
D:--------------------------------
A:-2-4-4-5------7-9-9-7-7-5-------
E:--------------------------------

G:--------------------------------------------------------------
D:--------------------------------------------------------------
E:-0-2-3-2-0----2-3-5-3-2-----3-5-7-2--------3--------2----0----
A:--------------------------------------------------------------

G:-----------------------------------------------------------------------
D:-----------------------------------------------------------------------
A:--0---2-3-----2---0------2-3-5-3-2-2-----0----5-5-3-2-3------3-2-0-----
E:-----------------------------------------------------------------------

G:------------------------------------------
D:------------------------------------------
A:--2-5-5----------3-3-------7-7-0----------
E:-----------3------------------------------

G:--------------------------------------------
D:--------------------------------------------
A:--5-6-6-7-5-4-----2-0--------2-4------------
E:--------------------------------------------

G:------------------------------------------
D:------------------------------------------
A:-5---10-10---7-3-2-0-5-9-10---------------
E:------------------------------------------
            
Hard to play? Try these video lessons and learn fast. | Correct




comments powered by Disqus
↑ Back to top | Tablatures and chords are parodies/interpretations of the original songs. You may use it for private study, scholarship, research or language learning purposes only