» » »

Mexican Hat Dance Bass tabs (ver.1)

Artists:  A B C D E F G H I J K L M N O P Q R S T U V W X Y Z # 

Mexican Hat Dance Bass tabs (ver.1)

Theme Songs
Rating:
0/5 (0 votes)

Hard to play? Try these video lessons and learn fast.
                (1)

| means a quarter rest

this is tabbed from trumpet so i know it
is right.

g-----------------------
d-------2-------|-3-2-|-
a-----3---3-----|-----|-
e-5-5-------5-3-|-----|-

g-----------------------
d---------------|-3-2-|-
a-----2-5-2-----|-----|- 
e-3-3-------3-5-|-----|- 

g-----------------------
d-------2-------|-3-2-|-
a-----3---3-----|-----|-
e-5-5-------5-3-|-----|-

g------------------------
d-----------------|------
a-----2-5-2-------|------
e-3-3-------3--5--|-0-5--
            
Hard to play? Try these video lessons and learn fast. | Correct




comments powered by Disqus
↑ Back to top | Tablatures and chords are parodies/interpretations of the original songs. You may use it for private study, scholarship, research or language learning purposes only