» » »

Meow Mix Bass tabs (ver.2)

Artists:  A B C D E F G H I J K L M N O P Q R S T U V W X Y Z # 

Meow Mix Bass tabs (ver.2)

Theme Songs
Rating:
0/5 (0 votes)

Hard to play? Try these video lessons and learn fast.
                (2)
G---------------------------------
D---------------------------------
A--3-2-0---3-2-0---3-2-3-4-5-4-3-0
E--------3-------3----------------

G---------------------------------
D---------------------------------
A--3-2-0---3-2-0---3-2-3-4-5-4-3-0
E--------3-------3----------------

G---------------------------------
D---------------------------------
A--3-2-0---3-2-0---3-2-3-4-5-4-3-0
E--------3-------3----------------
            
Hard to play? Try these video lessons and learn fast. | Correct




comments powered by Disqus
↑ Back to top | Tablatures and chords are parodies/interpretations of the original songs. You may use it for private study, scholarship, research or language learning purposes only