» » »

Mary Had A Little Lamb Bass tabs (ver.3)

Artists:  A B C D E F G H I J K L M N O P Q R S T U V W X Y Z # 

Mary Had A Little Lamb Bass tabs (ver.3)

Theme Songs
Rating:
0/5 (0 votes)

Hard to play? Try these video lessons and learn fast.
                
g-----------------------------------
d-----------------------------------
a-3-1---1--3-3-3-|-1-1-1-|-3-3-3-|--
e-----4----------|-------|-------|--

g-----------------------------
d-----------------------------
a-3-1---1--3-3-3-|-1-1-3-1----
e-----4----------|---------4--
            
Hard to play? Try these video lessons and learn fast. | Correct




comments powered by Disqus
↑ Back to top | Tablatures and chords are parodies/interpretations of the original songs. You may use it for private study, scholarship, research or language learning purposes only