» » »

Late Night With Conan ORien Bass tabs (ver.1)

Artists:  A B C D E F G H I J K L M N O P Q R S T U V W X Y Z # 

Late Night With Conan ORien Bass tabs (ver.1)

Theme Songs
Rating:
0/5 (0 votes)

Hard to play? Try these video lessons and learn fast.
                |A| 6x
G|-------------------3-------------|
D|-------3-5---3---5---5-2-----3---|
A|---2-5-----5---5-----------5---5-|
E|-3-----------------------3-------|
   |B|
G|-----------------8-6-5-----------|
D|---------3-4-5-8-------8-6-5-----|
A|---2-3-5---------------------8-6-|
E|-3-------------------------------|

-|A| 2x

Ending
G|-------------------|
D|-------------------|
A|-2-0~------5/7-10>-|repeat the 10
E|------3-1~---------|until the end
            
Hard to play? Try these video lessons and learn fast. | Correct




comments powered by Disqus
↑ Back to top | Tablatures and chords are parodies/interpretations of the original songs. You may use it for private study, scholarship, research or language learning purposes only