» » »

Inspector Gadget Bass tabs (ver.1)

Artists:  A B C D E F G H I J K L M N O P Q R S T U V W X Y Z # 

Inspector Gadget Bass tabs (ver.1)

Theme Songs
Rating:
0/5 (0 votes)

Tabs too difficult? Try these video lessons and learn fast.
                (Theme)
#1
G|----------------------------------------------------4--3--7--6---------
D|---------0--2--4---0--3--0--2--0-----------0--2--4---------------------
A|---2--4------------------------------2--4------------------------------
E|-----------------------------------------------------------------------

#2
G|---0--2--3--5--7--4--6--3--5--2----------------------------------------
D|-----------------------------------------------------------------------
A|-----------------------------------------------------------------------
E|-----------------------------------------------------------------------

G|---0--2--3--5--7--12-11--15-14-----------------------------------------
D|-----------------------------------------------------------------------
A|-----------------------------------------------------------------------
E|-----------------------------------------------------------------------

G|---0--2--3--5--7--4--6--3--5--2---0-----0------------------------------
D|-------------------------------------4---------------------------------
A|-----------------------------------------------------------------------
E|-----------------------------------------------------------------------

and thats all folks!!have fun and enjoy!
            
Tabs too difficult? Try these video lessons and learn fast.




comments powered by Disqus
↑ Back to top | Tablatures and chords are parodies/interpretations of the original songs. You may use it for private study, scholarship, research or language learning purposes only