» » »

Indiana Jones Bass tabs (ver.1)

Artists:  A B C D E F G H I J K L M N O P Q R S T U V W X Y Z # 

Indiana Jones Bass tabs (ver.1)

Theme Songs
Rating:
0/5 (0 votes)

Hard to play? Try these video lessons and learn fast.
                (Theme)
This is the Indiana Jones Theme

Listen to the movies for timing


G|---------------------------------------|
D|--------5----------------5-------------|
A|--2-3-5----2-3-5---2-3-5---2-3-5-7-9---| 
E|---------------------------------------|


G|----------------------------------------------|
D|--------5--7-9-10---4-5-4--0-5-4--0-5-4-------|
A|--2-3-5-----------2---------------------2-3-0-|
E|----------------------------------------------|

enjoy!
            
Hard to play? Try these video lessons and learn fast. | Correct




comments powered by Disqus
↑ Back to top | Tablatures and chords are parodies/interpretations of the original songs. You may use it for private study, scholarship, research or language learning purposes only