» » »

Ghostbusters Bass tabs (ver.2)

Artists:  A B C D E F G H I J K L M N O P Q R S T U V W X Y Z # 

Ghostbusters Bass tabs (ver.2)

Theme Songs
Rating:
0/5 (0 votes)

Hard to play? Try these video lessons and learn fast.
                (normal tuning)

Who you gonna call?


G|-----------------------------|
D|-----------------------------|
A|-2---10---9---8---7---17---13| Intro
E|-----------------------------|


G|----------2-2-----|
D|------04-----2-2--|
A|-2-2-2------------| Main Riff
E|------------------|

G|---------------------------|
D|---------------------------|
A|--2------0-----------------| Chorus
E|------------------4-------0|


G|-------------------|
D|-------------------| 
A|-2-0-------0--22---|  Bridge 1  2m x 3
E|-------------------|

G|-------------------|
D|-----------2-2-----|  
A|-2-0-----------0-0-|  Bridge 1 end
E|-------------------|

G|-------------------|
D|-------------------|
A|-------------------|  Bridge 2  2 35
E|--2-2-2-2-2-2-2-2--|


STRUCTURE

Intro         x 1
Main Riff     x 16
Chorus        x 2
Main riff     x 10
Chorus        x 2
Main riff     x 8
Bridge 1      x 3
Bridge 1 end  x 1
Main riff     x 8
Bridge 2      x 8
Chorus        x 2
main riff     play until fade (i count aroud 22 before end)
            
Hard to play? Try these video lessons and learn fast. | Correct




comments powered by Disqus
↑ Back to top | Tablatures and chords are parodies/interpretations of the original songs. You may use it for private study, scholarship, research or language learning purposes only