array
(
    
'flintstonestheme' => 'flintstonestheme'
    'themesongs' 
=> 'themesongs'
)
Flintstones Bass tabs (ver. 1) by Theme Songs @ AZ CHORDS.COM
» » »

Flintstones Bass tabs (ver.1)

Artists:  A B C D E F G H I J K L M N O P Q R S T U V W X Y Z # 

Flintstones Bass tabs (ver.1)

Theme Songs
Rating:
0/5 (0 votes)

Hard to play? Try these video lessons and learn fast.
                (Theme)
Reason:Insane boredom, too much coffee

G------5--2---------------------- \
D--5--------5---5-3-2-2-3-5------  |
A----3--------3-------------3-5-7  |
E--------------------------------  |
                                   |
G------5--2----------------------  | Intro
D--5--------5---5-3-2-2-3-5------  |
A----3--------3-------------3-5-3  |
E--------------------------------  |
                                  /
G-------------------------------- \
D-7---8--7-7-5-5-7-5-------------  |
A---5----------------------------  |
E--------------------------------  |
                                   | Verse 
G--------------------------------  |
D--5---7-5-5-3-3-5-3-------------  |
A----3---------------------------  |
E--------------------------------  |
                                  /
G-----3--0----------------------- \
D-3--------3---3-1-0-0-1-3-------  |
A---1--------1------------1-3----  |
E--------------------------------  |
                                   | Outro
G--------------------------3-5-3-  |
D-0-1-3----0-1-3-----0-1-3-------  |
A------1-3-------1-3-------------  |
E-------------------------------- /

Thank you, THANK YOU, you now have the FULL
and COMPLETE Flintstones theme music. I reccommend
popping all the notes, too create a jazzy party pleaser.
hehehehhe.  THIS IS my first tab, so, thanks, and please
enjoy it. Thanks for the small help with it from david
Zeeeeee.

-THE INCREDIBLE WONDERBOYY
            
Hard to play? Try these video lessons and learn fast. | Correct




comments powered by Disqus
↑ Back to top | Tablatures and chords are parodies/interpretations of the original songs. You may use it for private study, scholarship, research or language learning purposes only