» » »

Flintstones Tabs (ver.1)

Artists:  A B C D E F G H I J K L M N O P Q R S T U V W X Y Z # 

Flintstones Tabs (ver.1)

Theme Songs
Rating:
0/5 (0 votes)

Hard to play? Try these video lessons and learn fast.
                E]-------3-0-------------------------------------------------------------------------
B]-3---------3---------3-1-0-0-1-2--------0------------------------------------------
G]--0----------0----------------------0-2--------------------------------------------
D]-----------------------------------------------------------------------------------
A]-----------------------------------------------------------------------------------
E]-----------------------------------------------------------------------------------

E]-------3-0-------------------------------------------------------------------------
B]-3---------3---------3-1-0-0-1-2---------------------------------------------------
G]--0----------0----------------------0-2-0------------------------------------------
D]-----------------------------------------------------------------------------------
A]-----------------------------------------------------------------------------------
E]-----------------------------------------------------------------------------------

E]--4-----5-4-4-2-2-4-2-----2---3-2-2-0-0-2-0---------3-0----------------------------
B]----2-----------------------0------------------3--------3--------------------------
G]------------------------------------------------0---------0------------------------
D]-----------------------------------------------------------------------------------
A]-----------------------------------------------------------------------------------
E]-----------------------------------------------------------------------------------

E]--------------------------------------------3-5-3----------------------------------
B]-3-1-0-0-1-3-----------0-1-3---------0-1-3-----------------------------------------
G]----------------0-2----------0-2---------------------------------------------------
D]-----------------------------------------------------------------------------------
A]-----------------------------------------------------------------------------------
E]-----------------------------------------------------------------------------------
            
Hard to play? Try these video lessons and learn fast. | Correct




comments powered by Disqus
↑ Back to top | Tablatures and chords are parodies/interpretations of the original songs. You may use it for private study, scholarship, research or language learning purposes only