» » »

Theme Songs, Final Fanstasy Bass tabs (ver.1)

Artists:  A B C D E F G H I J K L M N O P Q R S T U V W X Y Z # 

Final Fanstasy Bass tabs (ver.1)

Theme Songs Tabs
 Rating:
4/5 (4 votes)
Final Fanstasy lessons Tabs too difficult? Try these video lessons and learn fast
                "(9)
(Theme)
1st Half
G|-0-2-3-5-7-7-9-10-9-7-5-7-3-2-0-----------------------------------------|
D|--------------------------------3---------------------------------------|
A|------------------------------------------------------------------------|
E|------------------------------------------------------------------------|

G|-0-2-3-5-7-7-9-10-9-7-7-5-7-7-------------------------------------------|
D|------------------------------------------------------------------------|
A|------------------------------------------------------------------------|
E|------------------------------------------------------------------------|

G|-0-2-3-5-7-7-9-10-9-7-5-7-3-2-0-----------------------------------------|
D|--------------------------------3---------------------------------------|
A|------------------------------------------------------------------------|
E|------------------------------------------------------------------------|

G|-3-5-3-2-0---7-2-5-3-2-2-2-0-0------------------------------------------|
D|-----------3------------------------------------------------------------|
A|------------------------------------------------------------------------|
E|------------------------------------------------------------------------|

G|-13-8-13-11-10-8-6-8-4-6-8-10-11-11-------------------------------------|
D|------------------------------------------------------------------------|
A|------------------------------------------------------------------------|
E|------------------------------------------------------------------------|

G|-13-8-13-11-10-8-6-4-8-4-8-1-1------------------------------------------|
D|------------------------------------------------------------------------|
A|------------------------------------------------------------------------|
E|------------------------------------------------------------------------|

2nd Half
G|-------------------9-10-9-------------------------|
D|----------10-12-12--------12-10-12----------------|
A|-10-12-13--------------------------13-12-10-------|
E|--------------------------------------------13----|

G|-------------------9-10-9-----------------|
D|----------10-12-12--------12-12-11-12-12--|
A|-10-12-13---------------------------------|
E|------------------------------------------|

G|-------------------9-10-9-------------------------|
D|----------10-12-12--------12-10-12----------------|
A|-10-12-13--------------------------13-12-10-------|
E|--------------------------------------------13----|

G|------------------------------------------------|
D|----10-------------12----10---------------------|
A|-13----13-12-10-------12----13-12-12-12-10-10---|
E|----------------13------------------------------|

G|-13----13-11-10------------------10-11-11---|
D|----13----------13-11-13-9-11-13------------|
A|--------------------------------------------|
E|--------------------------------------------|

G|-13----13-11-10-------------------|
D|----13----------13-11-9-13-9-13---|
A|----------------------------------|
E|----------------------------------|

this is my first tab so please rate it!! enjoy
"            
Submit corrections

comments powered by Disqus
↑ Back to top | Theme Songs Bass for Final Fanstasy. Lyrics for acoustic guitar and electric guitar. Tablatures and chords are parodies/interpretations of the original songs. You may use it for private study, scholarship, research or language learning purposes only