» » »

Dragon Ball Z Bass tabs (ver.2)

Artists:  A B C D E F G H I J K L M N O P Q R S T U V W X Y Z # 

Dragon Ball Z Bass tabs (ver.2)

Theme Songs
Rating:
0/5 (0 votes)

Tabs too difficult? Try these video lessons and learn fast.
                G-03-0-0--03-5--03-0-0--03----03-0-0--03-5-3-777777775----333----
D--------3-------------3---3---------3---------------------------
A----------------------------------------------------------------
E----------------------------------------------------------------

G-03-0-0--03-5--03-0-0--03----03-0-0--03-5-3-777777775----333----
D--------3-------------3---3---------3---------------------------
A----------------------------------------------------------------
E----------------------------------------------------------------

G-03-0-0--03-5--03-0-0--03----03-0-0--03-5-3-777777775----333----
D--------3-------------3---3---------3---------------------------
A----------------------------------------------------------------
E----------------------------------------------------------------

G-03-0-0--03-5--03-0-0--03----03-0-0--03-5-3-777777775----333----
D--------3-------------3---3---------3---------------------------
A----------------------------------------------------------------
E----------------------------------------------------------------

thanx for viewing and enjoy
            
Tabs too difficult? Try these video lessons and learn fast.




comments powered by Disqus
↑ Back to top | Tablatures and chords are parodies/interpretations of the original songs. You may use it for private study, scholarship, research or language learning purposes only