» » »

Deck The Hall Bass tabs (ver.1)

Artists:  A B C D E F G H I J K L M N O P Q R S T U V W X Y Z # 

Deck The Hall Bass tabs (ver.1)

Theme Songs
Rating:
0/5 (0 votes)

Hard to play? Try these video lessons and learn fast.
                "deck the hall with bows of holly"
G------------------
D-7-5-4-2-0-2-4-0--
A------------------
E------------------

"falala la la lalalala"
G--------------------
D-2-4-5-2-4-2-0---0--
A---------------4----
E--------------------

"it's the season to be jolly"
G------------------
D-7-5-4-2-0-2-4-0--
A------------------
E------------------

"falala la la lalalala"
G--------------------
D-2-4-5-2-4-2-0---0--
A---------------4----
E--------------------

"don we now our gay apparel"
G------------------
D-2-4-5-2-4-5-7-0--
A------------------
E------------------

"falala falala la la laaaa"
G-------4-6-7-6-4----
D-4-5-7-----------7--
A--------------------
E--------------------

"troll the ancient juletide carol"
G------------------
D-7-5-4-2-0-2-4-0--
A------------------
E------------------

"falala la la lalalalaaaaaaaaaaaaaaaaaa"
G--------------------
D-2-4-5-2-4-2-0---0--
A---------------4----
E--------------------

i figured this out while watching TV last night.
it'spretty funny what you do when you're desperately bored.
have fun with it!
theHooch
            
Hard to play? Try these video lessons and learn fast. | Correct




comments powered by Disqus
↑ Back to top | Tablatures and chords are parodies/interpretations of the original songs. You may use it for private study, scholarship, research or language learning purposes only