» » »

70's Batman Bass tabs (ver.6)

Artists:  A B C D E F G H I J K L M N O P Q R S T U V W X Y Z # 

70's Batman Bass tabs (ver.6)

Theme Songs
Rating:
0/5 (0 votes)

Hard to play? Try these video lessons and learn fast.
                (Theme)
Batman Theme Song 
D--------------------------------------------------------------------
G-------------------------------------------------------------------- 
A---------------------------------4-4-3-3-4-3-3-4-4-5-5-4-4-3-3-4-4----
E-5-5-4-4-3-3-4-4-5-5-4-4-3-3-4-4------------------------------------

To................... 
D------------------------------------------------------------------------ 
G------------------------------------------------------------------------ 
A---------------------------------7-7-6-6-5-5-6-6-5-5-4-4-3-3-4-4-------- 
E 5-5-4-4-3-3-4-4-5-5-4-4-3-3-4-4---------------------------------5-5-4-4-3-3-4-4/12-
            
Hard to play? Try these video lessons and learn fast. | Correct




comments powered by Disqus
↑ Back to top | Tablatures and chords are parodies/interpretations of the original songs. You may use it for private study, scholarship, research or language learning purposes only