» » »

Theme Songs, 70's Batman Bass tabs (ver.1)

Artists:  A B C D E F G H I J K L M N O P Q R S T U V W X Y Z # 

70's Batman Bass tabs (ver.1)

Theme Songs Tabs
 Rating:
4/5 (4 votes)
70's Batman lessons Tabs too difficult? Try these video lessons and learn fast
1
                (Theme)

This song was pretty easy to learn and it's fun to play.

Standard tuning, 4 string bass

/ - this means slide

It starts out like this

G:-----------------------------------------------------------------------------------
D:-----------------------------------------------------------------------------------
A:-----------------------------------5-5-4-4-3-3-4-4-5-5-4-4-3-3-4-4-----------------
E:--5-5-4-4-3-3-4-4-5-5-4-4-3-3-4-4--------------------------------------------------

Then you go to this

G:----------------------------------------------------------------------------------
D:----------------------------------------------------------------------------------
A:-----------------------------------7-7-6-6-5-5-6-6-5-5-4-4-3-3-4-4----------------
E:--5-5-4-4-3-3-4-4-5-5-4-4-3-3-4-4-------------------------------------------------

And then you go back to this

G:-----------------------------------------------------------------------------------
D:-----------------------------------------------------------------------------------
A:-----------------------------------------------------------------------------------
E:--5-5-4-4-3-3-4-4-/12--------------------------------------------------------------

On the tv show, I think the song repeats before sliding from 4 to 12
            
Submit corrections

comments powered by Disqus
↑ Back to top | Theme Songs Bass for 70's Batman. Lyrics for acoustic guitar and electric guitar. 1 Tablatures and chords are parodies/interpretations of the original songs. You may use it for private study, scholarship, research or language learning purposes only