» » »

Auld Lang Syne Tabs (ver.2)

Artists:  A B C D E F G H I J K L M N O P Q R S T U V W X Y Z # 

Auld Lang Syne Tabs (ver.2)

Theme Songs
Rating:
0/5 (0 votes)

Tabs too difficult? Try these video lessons and learn fast.
                This is howmy band play this.And where a punk band,So this is a punk version of it.
                              The Pratts(thats us) -Auld Lang Syne
Intro
G|------------------------------------------------------|     
D|------------------------------------------------------|
A|---2--3--3-3-3---2-----------2--3--3-3-3--2-----------|
E|-------------------3--3-3-3-----------------1--1-1-1--|

                                  C      F        C
G|----------------------------------------------------||
D|----------------------------------------------------||
A|---2--3--3-3-3--2-------------2--3-3-3----------3---||
E|-------------------3--3-3-3-------------1-1-1-------||

VERSE -Entire verse is palm muted
e|---------------------------------------------------------------------------|
B|---------------------------------------------------------------------------|
G|---5-5-5-5-5-5-5-5----------------------5-5-5-5-5-5-5-5--------------------|
D|---5-5-5-5-5-5-5-5---5-5-5-5-5-5-5-5----5-5-5-5-5-5-5-5--3-3-3-3-3-3-3-3---|
A|---3-3-3-3-3-3-3-3---5-5-5-5-5-5-5-5----3-3-3-3-3-3-3-3--3-3-3-3-3-3-3-3---|
E|---------------------3-3-3-3-3-3-3-3---------------------1-1-1-1-1-1-1-1---|

e|-------------------------------------------------------------------||
B|-------------------------------------------------------------------||
G|---5-5-5-5-5-5-5-5-----------------5-5-5-5-----------5-5-5-5-5-5---||
D|---5-5-5-5-5-5-5-5--5-5-5-5-5-5-5--5-5-5-5--3-3-3-3--5-5-5-5-5-5---||
A|---3-3-3-3-3-3-3-3--5-5-5-5-5-5-5--3-3-3-3--3-3-3-3--3-3-3-3-3-3---||
E|--------------------3-3-3-3-3-3-3-----------1-1-1-1----------------||

CHORUS -Played much faster without plam muting
     C                 G                  C                F
e|---------------------------------------------------------------------------|
B|---------------------------------------------------------------------------|
G|---5-5-5-5-5-5-5-5----------------------5-5-5-5-5-5-5-5--------------------|
D|---5-5-5-5-5-5-5-5---5-5-5-5-5-5-5-5----5-5-5-5-5-5-5-5--3-3-3-3-3-3-3-3---|
A|---3-3-3-3-3-3-3-3---5-5-5-5-5-5-5-5----3-3-3-3-3-3-3-3--3-3-3-3-3-3-3-3---|
E|---------------------3-3-3-3-3-3-3-3---------------------1-1-1-1-1-1-1-1---|
     C                 G            C         F        C 
e|-------------------------------------------------------------------||
B|-------------------------------------------------------------------||
G|---5-5-5-5-5-5-5-5-----------------5-5-5-5-----------5-5-5-5-5-5---||
D|---5-5-5-5-5-5-5-5--5-5-5-5-5-5-5--5-5-5-5--3-3-3-3--5-5-5-5-5-5---||
A|---3-3-3-3-3-3-3-3--5-5-5-5-5-5-5--3-3-3-3--3-3-3-3--3-3-3-3-3-3---||
E|--------------------3-3-3-3-3-3-3-----------1-1-1-1----------------||

SOLO 1 -Guitar 2 plays verse/chorus....in this song the half of this solo the vocalist/rhythm guitarist of the band plays it on the harmonica
e|----------------------------3-5--5-3----------------------------||
B|---------5-3---3--5p3---3-5----------5-5--3--3-5p3--------------||
G|-----5-5-----5--------5------------------5--5-------5-5-2----5--||
D|---5-------------------------------------------------------5----||
A|----------------------------------------------------------------||
E|----------------------------------------------------------------||

SOLO 2
e|--------------------------------------15-17--17-15----------------------|
B|------------17-15----15-17p15---15-17--------------17-17---15-15-17p15--|
G|---12/17-17-------17----------17-------------------------17-17----------|
D|------------------------------------------------------------------------|
A|------------------------------------------------------------------------|
E|------------------------------------------------------------------------|

e|-------------------17-15------------------17-15-------15-17---17-15-----|
B|---------------13--------17-17----15--15--------17-17-------------------|
G|--17-17-14-12------------------17--17-----------------------------------|
D|------------------------------------------------------------------------|
A|------------------------------------------------------------------------|
E|------------------------------------------------------------------------|

e|---------------------------------------||
B|--17-17---15-15--17p15-------------13--||
G|--------17--17---------17-17-14-12-----||
D|---------------------------------------||
A|---------------------------------------||
E|---------------------------------------||

This is the order we play- intro
                           verse
                           chorus 
                           solo 1
                           verse
                           chorus
                           solo 2
                           chorus
                           verse
                           chorus then end on C5
     Please rate this.check out some other tabs i've put up
            
Tabs too difficult? Try these video lessons and learn fast.


comments powered by Disqus
↑ Back to top | Tablatures and chords are parodies/interpretations of the original songs. You may use it for private study, scholarship, research or language learning purposes only