» » »

Theme Songs, Are You Sleeping? Bass tabs (ver.2)

Artists:  A B C D E F G H I J K L M N O P Q R S T U V W X Y Z # 

Are You Sleeping? Bass tabs (ver.2)

Theme Songs Tabs
Rating:
0/5 (0 votes)
Hard to play? Try these video lessons and learn fast.
                "(1)
Riff 1
G----0r--2r----------0r--2r----|
D-3r--------3r----3r--------3r-|
A------------------------------|
E------------------------------|

Riff 2
G-2--3--5r----2--3--5r-|
D----------------------|
A----------------------|
E----------------------|

Riff 3
G-5-7-5-3-2---5-7-5-3-2---|
D-----------3-----------3-|
A-------------------------|
E-------------------------|

G---------------------|
D-3r----3r---3r----3r-|
A----3r---------3r----|
E---------------------|

Repeats how ever many times
Enjoy! It’s extremely easy
"            

comments powered by Disqus
↑ Back to top | Theme Songs Bass for Are You Sleeping?. Lyrics for acoustic guitar and electric guitar. Tablatures and chords are parodies/interpretations of the original songs. You may use it for private study, scholarship, research or language learning purposes only