» » »

007 Bass tabs (ver.2)

Artists:  A B C D E F G H I J K L M N O P Q R S T U V W X Y Z # 

007 Bass tabs (ver.2)

Theme Songs
Rating:
0/5 (0 votes)

Hard to play? Try these video lessons and learn fast.
                Song    007: James Bond Main Theme
Artist  Many Different Ones Over the years
Tuning  Standard (E A D G)

This is normally played on an ordinary Guitar but can be played on a bass, 
but only the main riff.

                                      __________
                                          1+2   |
--------------------------|---------------------|
--------------------------|---------------------|
--------------------------|---------------------|   x3
-0--2-2--2--2--0--0--0--0-|-3-3--3--3--2--2--2--|


 ____________________________
|3
-----------|----------------|
-----------|--1-0-----------|
-----------|--------2-0-2---|
-2--1--0---|----------------|

If you wantto play the rest of the theme, then check out my tab on tht Guitar
section of Mxtabs.
            
Hard to play? Try these video lessons and learn fast. | Correct




comments powered by Disqus
↑ Back to top | Tablatures and chords are parodies/interpretations of the original songs. You may use it for private study, scholarship, research or language learning purposes only