» » »

Them, Baby Please Dont Go Tabs (ver.2)

Artists:  A B C D E F G H I J K L M N O P Q R S T U V W X Y Z # 

Baby Please Dont Go Tabs (ver.2)

Them Tabs
Rating:
0/5 (0 votes)
Baby Please Dont Go lessons Tabs too difficult? Try these video lessons and learn fast
                (Intro)
-------------------------------------------------------------------------------
                             Baby Please Don't Go- Them
-------------------------------------------------------------------------------

Tuning:

e|---------------3---------------------------------------3-------------------|
B|--------3---5------5----3------3/5-----------------5------5----3-----------|
G|----4-----------------------4------------------4-------------------4--3----|
D|---------------------------------------------------------------------------|
A|---------------------------------------------------------------------------|
E|---------------------------------------------------------------------------|

e|----------3--------------------------------------------------------------------|
B|------5------5---3--------5---3-------------3----------------------------------|
G|---4-----------------4------------4—---2/4----4\2--------2--2------------------|
D|------------------------------------------------------2----------2-0-----------|
A|---------------------------------------------------2------------------2-0------|
E|---------------------------------------------------------------------------3-0-|

e|---------------------------------------------------------------------------|
B|---------------------------------------------------------------------------|
G|---------------------------------------------------------------------------|
D|---------------------------------------------------------------------------|
A|----------5-------------------------5-------------------------5------------|
E|----5/7-------7----3---0------5/7-------7---3---0-------5/7-------7---3---0|

e|---------------------------------------------------------------------------|
B|---------------------------------------------------------------------------|
G|---------------------------------------------------------------------------|
D|---------------------------------------------------------------------------|
A|---------5-----------------------------------------------------------------|
E|---5/7--------7----3---0---------------------------------------------------|
                                  baby, please don't go... baby, please don't go...



| /  slide up
| \  slide down
| h  hammer-on
| p  pull-off
            
Submit corrections

comments powered by Disqus
↑ Back to top | Them Tabs for Baby Please Dont Go. Lyrics for acoustic guitar and electric guitar. Tablatures and chords are parodies/interpretations of the original songs. You may use it for private study, scholarship, research or language learning purposes only