» » »

Them, Baby Please Dont Go Bass tabs (ver.2)

Artists:  A B C D E F G H I J K L M N O P Q R S T U V W X Y Z # 

Baby Please Dont Go Bass tabs (ver.2)

Them Tabs
 Rating:
4/5 (4 votes)
Baby Please Dont Go lessons Tabs too difficult? Try these video lessons and learn fast
                Baby Please Don't Go
Them
Written by Big Joe Williams; released as a single with "Gloria" as the B-side

Intro:
G|------ ------ ------ ------|------ ------ ------ ------|
D|---------------------------|3---3--5---3--3---3--5---3-|
A|---------------------------|---------------------------|
E|---------------------------|---------------------------|



G|------ ------ ------ ------|------ ------ ------ ------|
D|3---3--5---3--3---3--5---3-|3---3--5---3--3---3--5---3-|
A|---------------------------|---------------------------|
E|---------------------------|---------------------------|



G|------ ------ ------ ------|------ ------ ------ ------|
D|3---3--5---3--3---3--5---3-|3---3--5---3--3---3--5---3-|
A|---------------------------|---------------------------|
E|---------------------------|---------------------------|



G|------ ------ ------ ------|------ ------ ------ ------|
D|3---3--5---3--3---3--5---3-|3---3--5---3--3---3--5---3-|
A|---------------------------|---------------------------|
E|---------------------------|---------------------------|



G|------ ------ ------ ------|------ ------ ------ ------|
D|3---3--5---3--3---3--5---3-|3---3--5---3--3---3--5---3-|
A|---------------------------|---------------------------|
E|---------------------------|---------------------------|



G|------ ------ ------ ------|------ ------ ------ ------|------ ------|
D|3---3--5---3--3---3--5---3-|3---3--5---3--3---3--5---3-|3---3--5---3-|
A|---------------------------|---------------------------|-------------|
E|---------------------------|---------------------------|-------------|



G|------ ------ ------ ------|------ ------ ------ ------|
D|3---3--5---3--3---3--5---3-|3---3--5---3--3---3--5---3-|
A|---------------------------|---------------------------|
E|---------------------------|---------------------------|



G|------ ------ ------ ------|------ ------ ------ ------|
D|3---3--5---3--3---3--5---3-|3---3--5---3--3---3--5---3-|
A|---------------------------|---------------------------|
E|---------------------------|---------------------------|



G|------ ------ ------ ------|------ ------ ------ ------|
D|3---3--5---3--3---3--5---3-|3---3--5---3--3---3--5---3-|
A|---------------------------|---------------------------|
E|---------------------------|---------------------------|



G|------ ------ ------ ------|------ ------ ------ ------|
D|3---3--5---3--3---3--5---3-|3---3--5---3--3---3--5---3-|
A|---------------------------|---------------------------|
E|---------------------------|---------------------------|



G|------ ------ ------ ------|------ ------ ------ ------|
D|3---3--5---3--3---3--5---3-|3---3--5---3--3---3--5---3-|
A|---------------------------|---------------------------|
E|---------------------------|---------------------------|



G|------ ------ ------ ------|
D|3---3--5---3--3---3--5---3-|
A|---------------------------|
E|---------------------------|
         Ba- by please     go,
                    don't
Verse:
G|------ ------ ------ ------|------ ------ ------ ------|
D|3---3--5---3--3---3--5---3-|3---3--5---3--3---3--5---3-|
A|---------------------------|---------------------------|
E|---------------------------|---------------------------|
                                     ba- by please     go,
                                                don't

G|------ ------ ------ ------|------ ------ ------ ------|
D|3---3--5---3--3---3--5---3-|3---3--5---3--3---3--5---3-|
A|---------------------------|---------------------------|
E|---------------------------|---------------------------|
                                                   Ba- by,


G|------ ------ ------ ------|------ ------ ------ ------|
D|3---3--5---3--3---3--5---3-|3---3--5---3--3---3--5---3-|
A|---------------------------|---------------------------|
E|---------------------------|---------------------------|
  please     go       down to New Or  -  leans, you    I
      don't                                        know

G|------ ------ ------ ------|5----- 3----- ------ ------|
D|3---3--5---3--3---3--5-----|--------------6------3-----|
A|---------------------------|---------------------------|
E|---------------------------|---------------------------|
  love   you so,       baby,  please don't  go.


G|------ ------ ------ ------|------ ------ ------ ------|
D|3---3--5---3--3---3--5---3-|3---3--5---3--3---3--5---3-|
A|---------------------------|---------------------------|
E|---------------------------|---------------------------|



G|------ ------ ------ ------|------ ------ ------ ------|
D|3---3--5---3--3---3--5---3-|3---3--5---3--3---3--5---3-|
A|---------------------------|---------------------------|
E|---------------------------|---------------------------|
                                     Babe,  mind done  gone,
                                         your
Verse:
G|------ ------ ------ ------|------ ------ ------ ------|
D|3---3--5---3--3---3--5---3-|3---3--5---3--3---3--5---3-|
A|---------------------------|---------------------------|
E|---------------------------|---------------------------|
                                     well,  mind done  gone,
                                         your

G|------ ------ ------ ------|------ ------ ------ ------|
D|3---3--5---3--3---3--5---3-|3---3--5---3--3---3--5---3-|
A|---------------------------|---------------------------|
E|---------------------------|---------------------------|
                                                Well,  your


G|------ ------ ------ ------|------ ------ ------ ------|
D|3---3--5---3--3---3--5---3-|3---3--5---3--3---3--5---3-|
A|---------------------------|---------------------------|
E|---------------------------|---------------------------|
  mind   done   gone,  left   country    farm,  you had the
                           the

G|------ ------ ------ ------|5----- 3----- ------ ------|
D|3---3--5---3--3---3--5-----|--------------6------3-----|
A|---------------------------|---------------------------|
E|---------------------------|---------------------------|
  sha -  ckles on,     baby,  please don't  go.


G|------ ------ ------ ------|------ ------ ------ ------|
D|3---3--5---3--3---3--5---3-|3---3--5---3--3---3--5---3-|
A|---------------------------|---------------------------|
E|---------------------------|---------------------------|



G|------ ------ ------ ------|------ ------ ------ ------|
D|3---3--5---3--3---3--5---3-|3---3--5---3--3---3--5---3-|
A|---------------------------|---------------------------|
E|---------------------------|---------------------------|
                                   Before   be  your   dog,
                                         I'll
Verse:
G|------ ------ ------ ------|------ ------ ------ ------|
D|3---3--5---3--3---3--5---3-|3---3--5---3--3---3--5---3-|
A|---------------------------|---------------------------|
E|---------------------------|---------------------------|
                                   before   be  your   dog,
                                         I'll

G|------ ------ ------ ------|------ ------ ------ ------|
D|3---3--5---3--3---3--5---3-|3---3--5---3--3---3--5---3-|
A|---------------------------|---------------------------|
E|---------------------------|---------------------------|
                                                 Before I'll


G|------ ------ ------ ------|------ ------ ------ ------|
D|3---3--5---3--3---3--5---3-|3---3--5---3--3---3--5---3-|
A|---------------------------|---------------------------|
E|---------------------------|---------------------------|
  be  your   dog,   I  get you way down  here,  I  make you


G|------ ------ ------ ------|5----- 3----- ------ ------|
D|3---3--5---3--3---3--5-----|--------------6------3-----|
A|---------------------------|---------------------------|
E|---------------------------|---------------------------|
  walk   a - lone,     baby,  please don't  go.


G|------ ------ ------ ------|------ ------ ------ ------|
D|3---3--5---3--3---3--5---3-|3---3--5---3--3---3--5---3-|
A|---------------------------|---------------------------|
E|---------------------------|---------------------------|
                                                Hey!


G|------ ------ ------ ------|------ ------ ------ ------|
D|3---3--5---3--3---3--5---3-|3---3--5---3--3---3--5---3-|
A|---------------------------|---------------------------|
E|---------------------------|---------------------------|


Break (solo):
G|------ ------ ------ ------|------ ------ ------ ------|
D|3---3--5---3--3---3--5---3-|3---3--5---3--3---3--5---3-|
A|---------------------------|---------------------------|
E|---------------------------|---------------------------|



G|------ ------ ------ ------|------ ------ ------ ------|
D|3---3--5---3--3---3--5---3-|3---3--5---3--3---3--5---3-|
A|---------------------------|---------------------------|
E|---------------------------|---------------------------|



G|------ ------ ------ ------|------ ------ ------ ------|
D|3---3--5---3--3---3--5---3-|3---3--5---3--3---3--5---3-|
A|---------------------------|---------------------------|
E|---------------------------|---------------------------|



G|------ ------ ------ ------|------ ------|
D|3---3--5---3--3---3--5---3-|3---3--5---3-|
A|---------------------------|-------------|
E|---------------------------|-------------|



G|------ ------ ------ ------|------ ------ ------ ------|
D|3---3--5---3--3---3--5---3-|3---3--5---3--3---3--5---3-|
A|---------------------------|---------------------------|
E|---------------------------|---------------------------|



G|------ ------ ------ ------|------ ------ ------ ------|
D|3---3--5---3--3---3--5---3-|3---3--5---3--3---3--5---3-|
A|---------------------------|---------------------------|
E|---------------------------|---------------------------|



G|------ ------ ------ ------|------ ------ ------ ------|
D|3---3--5---3--3---3--5---3-|3---3--5---3--3---3--5---3-|
A|---------------------------|---------------------------|
E|---------------------------|---------------------------|
                                     Ba- by please     go,
                                                don't
Verse:
G|------ ------ ------ ------|------ ------ ------ ------|
D|3---3--5---3--3---3--5---3-|3---3--5---3--3---3--5---3-|
A|---------------------------|---------------------------|
E|---------------------------|---------------------------|
                                     ba- by please     go,
                                                don't

G|------ ------ ------ ------|------ ------ ------ ------|
D|3---3--5---3--3---3--5---3-|3---3--5---3--3---3--5---3-|
A|---------------------------|---------------------------|
E|---------------------------|---------------------------|
                                                   Ba- by,


G|------ ------ ------ ------|------ ------ ------ ------|
D|3---3--5---3--3---3--5---3-|3---3--5---3--3---3--5---3-|
A|---------------------------|---------------------------|
E|---------------------------|---------------------------|
  please     go       down to New Or  -  leans, you    I
      don't                                        know

G|------ ------ ------ ------|------ ------ ------ ------|
D|3---3--5---3--3---3--5---3-|3---3--5---3--3---3--5---3-|
A|---------------------------|---------------------------|
E|---------------------------|---------------------------|
  love   you so,       baby,  please don't  go.


G|------ ------ ------ ------|------ ------ ------ ------|
D|3---3--5---3--3---3--5---3-|3---3--5---3--3---3--5---3-|
A|---------------------------|---------------------------|
E|---------------------------|---------------------------|



G|------ ------ ------ ------|------ ------|
D|3---3--5---3--3---3--5---3-|3---3--5---3-|
A|---------------------------|-------------|
E|---------------------------|-------------|
                     Before   be  your   dog,
                           I'll
Verse:
G|------ ------ ------ ------|------ ------ ------ ------|
D|3---3--5---3--3---3--5---3-|3---3--5---3--3---3--5---3-|
A|---------------------------|---------------------------|
E|---------------------------|---------------------------|
                                   before   be  your   dog,
                                         I'll

G|------ ------ ------ ------|------ ------ ------ ------|
D|3---3--5---3--3---3--5---3-|3---3--5---3--3---3--5---3-|
A|---------------------------|---------------------------|
E|---------------------------|---------------------------|
                                                 Before I'll


G|------ ------ ------ ------|------ ------ ------ ------|
D|3---3--5---3--3---3--5---3-|3---3--5---3--3---3--5---3-|
A|---------------------------|---------------------------|
E|---------------------------|---------------------------|
  be  your   dog,   I  get you way down  here,  I  make you


G|------ ------ ------ ------|------ ------|
D|3---3--5---3--3---3--5---3-|3---3--5---3-|
A|---------------------------|-------------|
E|---------------------------|-------------|
  walk   a - lone,     baby,  please don't


G|------ ------ ------ ------|------ ------ ------ ------|
D|3---3--5---3--3---3--5---3-|3---3--5---3--3---3--5---3-|
A|---------------------------|---------------------------|
E|---------------------------|---------------------------|
  go.


G|------ ------ ------ ------|
D|3---3--5---3--3---3--5---3-|
A|---------------------------|
E|---------------------------|
         Oh  how I  feel right

Bridge:
G|------ ------ ------ ------|------ ------ ------ ------|
D|3---3--5---3--3---3--5---3-|3---3--5---3--3---3--5---3-|
A|---------------------------|---------------------------|
E|---------------------------|---------------------------|
  now,                                      my  ba  -  by


G|------ ------ ------ ------|------ ------ ------ ------|
D|3---3--5---3--3---3--5---3-|3---3--5---3--3---3--5---3-|
A|---------------------------|---------------------------|
E|---------------------------|---------------------------|
  lea  - ving                     on   that midnight   train,


G|------ ------ ------ ------|------ ------ ------ ------|
D|3---3--5---3--3---3--5---3-|3---3--5---3--3---3--5---3-|
A|---------------------------|---------------------------|
E|---------------------------|---------------------------|
                                         And I'm


G|------ ------ ------ ------|------ ------ ------ ------|
D|3---3--5---3--3---3--5---3-|3---3--5---3--3---3--5---3-|
A|---------------------------|---------------------------|
E|---------------------------|---------------------------|
  crying.


G|------ ------ ------ ------|------ ------ ------ ------|
D|3---3--5---3--3---3--5---3-|3---3--5---3--3---3--5---3-|
A|---------------------------|---------------------------|
E|---------------------------|---------------------------|



G|------ ------ ------ ------|------ ------ ------ ------|
D|3---3--5---3--3---3--5---3-|3---3--5---3--3---3--5---3-|
A|---------------------------|---------------------------|
E|---------------------------|---------------------------|



G|------ ------ ------ ------|------ ------ ------ ------|
D|3---3--5---3--3---3--5---3-|3---3--5---3--3---3--5---3-|
A|---------------------------|---------------------------|
E|---------------------------|---------------------------|
                                     Ba- by please     go,
                                                don't
Verse:
G|------ ------ ------ ------|------ ------ ------ ------|
D|3---3--5---3--3---3--5---3-|3---3--5---3--3---3--5---3-|
A|---------------------------|---------------------------|
E|---------------------------|---------------------------|
                                     ba- by please     go,
                                                don't

G|------ ------ ------ ------|------ ------ ------ ------|
D|3---3--5---3--3---3--5---3-|3---3--5---3--3---3--5---3-|
A|---------------------------|---------------------------|
E|---------------------------|---------------------------|
                                                   Ba- by,


G|------ ------ ------ ------|------ ------ ------ ------|
D|3---3--5---3--3---3--5---3-|3---3--5---3--3---3--5---3-|
A|---------------------------|---------------------------|
E|---------------------------|---------------------------|
  please     go       down to New Or  -  leans, you    I
      don't                                        know

G|------ ------ ------ ------|5----- 3----- ------ ------|
D|3---3--5---3--3---3--5-----|--------------6------3-----|
A|---------------------------|---------------------------|
E|---------------------------|---------------------------|
  love   you so,       baby,  please don't  go.


G|------ ------ ------ ------|------ ------ ------ ------|
D|3---3--5---3--3---3--5---3-|3---3--5---3--3---3--5---3-|
A|---------------------------|---------------------------|
E|---------------------------|---------------------------|



G|------ ------ ------ ------|------ ------ ------ ------|
D|3---3--5---3--3---3--5---3-|3---3--5---3--3---3--5---3-|
A|---------------------------|---------------------------|
E|---------------------------|---------------------------|
                                   Before   be  your   dog,
                                         I'll
Verse:
G|------ ------ ------ ------|------ ------ ------ ------|
D|3---3--5---3--3---3--5---3-|3---3--5---3--3---3--5---3-|
A|---------------------------|---------------------------|
E|---------------------------|---------------------------|
                                   before   be  your   dog,
                                         I'll

G|------ ------ ------ ------|------ ------ ------ ------|
D|3---3--5---3--3---3--5---3-|3---3--5---3--3---3--5---3-|
A|---------------------------|---------------------------|
E|---------------------------|---------------------------|
                                                 Before I'll


G|------ ------ ------ ------|------ ------ ------ ------|
D|3---3--5---3--3---3--5---3-|3---3--5---3--3---3--5---3-|
A|---------------------------|---------------------------|
E|---------------------------|---------------------------|
  be  your   dog,   I  get you way down  here,  I  make you


G|------ ------ 5----- 3-----|------ ------ ------ 3-----|
D|3---3--5-------------------|6------3------6------------|
A|---------------------------|---------------------------|
E|---------------------------|---------------------------|
  walk   a - lone,     baby,  please don't  go.


G|------ ------ ------ ------|------ ------ ------ ------|
D|3---3--5---3--3---3--5---3-|3---3--5---3--3---3--5---3-|
A|---------------------------|---------------------------|
E|---------------------------|---------------------------|
                                                All    right!


G|------ ------ ------ ------|------ ------ ------ ------|
D|3---3--5---3--3---3--5---3-|3---3--5---3--3---3--5---3-|
A|---------------------------|---------------------------|
E|---------------------------|---------------------------|


Outro:
G|------ ------ ------ ------|------ ------ ------ ------|
D|3---3--5---3--3---3--5---3-|3---3--5---3--3---3--5---3-|
A|---------------------------|---------------------------|
E|---------------------------|---------------------------|



G|------ ------ ------ ------|------ ------ ------ ------|
D|3---3--5---3--3---3--5---3-|3---3--5---3--3---3--5---3-|
A|---------------------------|---------------------------|
E|---------------------------|---------------------------|



G|------ ------ ------ ------|------ ------ ------ ------|
D|3---3--5---3--3---3--5---3-|3---3--5---3--3---3--5---3-|
A|---------------------------|---------------------------|
E|---------------------------|---------------------------|



G|------ ------ ------ ------|------ ------ ------ ------|
D|3---3--5---3--3---3--5---3-|3---3--5---3--3------------|
A|---------------------------|---------------------------|
E|---------------------------|---------------------------|

Please e-mail me for any corrections, or write a comment.
            
Submit corrections

comments powered by Disqus
↑ Back to top | Them Bass for Baby Please Dont Go. Lyrics for acoustic guitar and electric guitar. Tablatures and chords are parodies/interpretations of the original songs. You may use it for private study, scholarship, research or language learning purposes only