» » »

Baby Please Dont Go Tabs (ver.3)

Artists:  A B C D E F G H I J K L M N O P Q R S T U V W X Y Z # 

Baby Please Dont Go Tabs (ver.3)

Them
Rating:
4/5 (6 votes)

Hard to play? Try these video lessons and learn fast.
                


Baby Please Do Go - Them

This is the  Guitar instrumental part for the THEM arrangement
of the old blues classic done by Big Joe Williams,Big Bill
Broonzy,John Lee Hooker and countless other Blues and Rock
artists.
The standard Rock version is by THEM

If I can get hold of the record I'II work out the rest of it.


E ----0--------------------------------3-----------------------|
B ----5---------------------3-----5----------5----------3------|
G -----------------4-----------------------------------------3-|
D -------------------------------------------------------------|
A -------------------------------------------------------------|
E -------------------------------------------------------------|


E ----------3-------------0-----0-----------------------------|
B ---3---5-----5----3-----5-----3-----------------------------|
G 4--------------------------------4----2--0-----2------------|
D --------------------------------------------2---------2--2--|
A ------------------------------------------------------------|
E ------------------------------------------------------------|


E ------------------------------------------------------------|
B ------------------------------------------------------------|
G ------------------------------------------------------------|
D ---2 0------------------------------------------------------|
A ---------2----0---------------------------------------------|
E ------------------3------0----------------------------------|


E -----3----0----7---0---3----0----7---0---3----0----7---0----|
B -----5----5----0---5---5----5----0---5---5----5----0---5----|
G ------------------------------------------------------------|
D ------------------------------------------------------------|
A ------------------------------------------------------------|
E ------------------------------------------------------------|

E ----0--------------------------------3-----------------------|
B ----5---------------------3-----5----------5----------3------|
G -----------------4-----------------------------------------3-|
D -------------------------------------------------------------|
A -------------------------------------------------------------|
E -------------------------------------------------------------|


E ----------3-------------0-----0-----------------------------|
B ---3---5-----5----3-----5-----3-----------------------------|
G 4--------------------------------4----2--0-----2------------|
D --------------------------------------------2---------2--2--|
A ------------------------------------------------------------|
E ------------------------------------------------------------|

E ------------------------------------------------------------|
B ------------------------------------------------------------|
G ------------------------------------------------------------|
D ------------------------------------------------------------|
A --------5----------------------------5----------------------|
E ---7----------7----3---0----- ---7----------7----3---0------|

E ------------------------------------------------------------|
B ------------------------------------------------------------|
G ------------------------------------------------------------|
D ------------------------------------------------------------|
A --------5---------------------------------------------------|
E ---7----------7-----3-----0---------------------------------|


     Baby please don't go,
     Baby please don't go,
     Baby please don't go,
     Down to New Orleans
     You know I love you so,
     Baby please don't go.
            
Hard to play? Try these video lessons and learn fast. | Correct




comments powered by Disqus
↑ Back to top | Tablatures and chords are parodies/interpretations of the original songs. You may use it for private study, scholarship, research or language learning purposes only