» » »

Rock My Body Tabs (ver.1)

Artists:  A B C D E F G H I J K L M N O P Q R S T U V W X Y Z # 

Rock My Body Tabs (ver.1)

The Higher
Rating:
5/5 (2 votes)

Tabs too difficult? Try these video lessons and learn fast.
                
     Q    Q    E   E  E   E     E  E   E  E   E  E  E  E
E||--------------------------|----------------------------|
B||--------------------------|----------------------------|
G||--------------------------|-----9----------------------|
D||-------------------9--11--|--L-----11--9---------------|
A||--9----7----9--11---------|---------------11--9--7--9--|
E||--------------------------|----------------------------|


  Q    Q    E   E  E   E     Q     Q    Q.     E
--------------------------|-----------------------|
--------------------------|-----------------------|
--------------------------|--9--------------------|
-------------------9--11--|-------11----9---------|
--L----7----9--11---------|--------------------9--|
--------------------------|-----------------------|


  Q    Q    E   E  E   E     E  E   E  E   E  E  E  E
--------------------------|----------------------------|
--------------------------|----------------------------|
--------------------------|-----9----------------------|
-------------------9--11--|--L-----11--9---------------|
--L----7----9--11---------|---------------11--9--7--9--|
--------------------------|----------------------------|


  Q    Q    E   E  E   E     Q     Q    Q.     E
--------------------------|-----------------------|
--------------------------|-----------------------|
--------------------------|--9--------------------|
-------------------9--11--|-------11----9------L--|
--L----7----9--11---------|-----------------------|
--------------------------|-----------------------|


  E  E   E  E  Q     E  E      Q     E  E  E  E  E  E
---------------------------|---------------------------|
---------------------------|---------------------------|
---------------9-----------|---------------------------|
------------9-------11--9--|--11-----------------------|
--7--9--11-----------------|--------11--9--7--9--7--L--|
---------------------------|---------------------------|


  E  E   E  E  Q     E  E     E  E  E   E   E   E   E   E
---------------------------|-------------------------------|
---------------------------|---------------------------12--|
---------------9--------8--|--9--8--9--11--13--11--13------|
------------9-------11-----|-------------------------------|
--7--9--11-----------------|-------------------------------|
---------------------------|-------------------------------|


   W
--------------------||
--14----------------||
--------------------||
--------------------||
--------------------||
--------------------||

P.s. ill more than likley have the whole song tabbed on guitar pro and maybe power tab 
the next month or so


Duration Legend
---------------
W - whole
H - half
Q - quarter
E - 8th
S - 16th
T - 32nd
X - 64th
. - note dotted
|-n-|  - n-tuplets


Tablature Legend
----------------
L - tied note
x - dead note
g - grace note
(n) - ghost note
> - accentuded note
NH - natural harmonic
AH - artificial harmonic
TH - tapped harmonic
SH - semi harmonic
PH - pitch harmonic
h - hammer on
p - pull off
b - bend
br - bendRelease
pb - preBend
pbr - preBendRelease
brb - bendReleaseBend
\n/ - tremolo bar dip
\n - tremolo bar dive
-/n - tremolo bar Release up
/n\ - tremolo bar inverted dip
/n - tremolo bar return
-\n - tremolo bar Release down
S - shift slide
s - legato slide
/ -  slide into from below or out of upwards
\ -  slide into from above or out of downwards
~ - vibrato
W - wide vibrato
tr - trill
TP - tremolo picking
T - tapping
S - slap
P - pop
< - fade in
^ - brush up
v - brush down
            
Tabs too difficult? Try these video lessons and learn fast.




comments powered by Disqus
↑ Back to top | Tablatures and chords are parodies/interpretations of the original songs. You may use it for private study, scholarship, research or language learning purposes only