» » »

The Higher, Rock My Body Bass tabs (ver.1)

Artists:  A B C D E F G H I J K L M N O P Q R S T U V W X Y Z # 

Rock My Body Bass tabs (ver.1)

The Higher Tabs
 Rating:
4/5 (4 votes)
Rock My Body lessons Tabs too difficult? Try these video lessons and learn fast
                

yeah man so i was jus playing this while my friend was looking for someone to ahng out 
cause we're bored as %#*& and so i decided, i'll put it up there for everyone to get a 
on how it goes and stuff. cool? good.


intro X1:

g----------------------|
d----------------------|
a--4~-----------0~-----|
e----------------------|

verse X4:

g--------------------------------------|
d--------------------------------------|
a--4-4-4347-4444444-0-0-0000-0000000---|
e--------------------------------------|

note: the 4347 might just my ears but idk. it still sounds cool in it.

pre-chorus X1:

g-------------------|
d-------------------|
a--4~--7~--0~~------|
e-------------------|


chorus X2:

g----------------------------------|
d----------------------------------|
a--4-X16--7-X16--0-X16--2-X16------|
e----------------------------------|


verse X4:

g--------------------------------------|
d--------------------------------------|
a--4-4-4347-4444444-0-0-0000-0000000---|
e--------------------------------------|

bridge:

g------------------------------------------|X3
d------------------------------------------|
a-00000000-22222222-77777777/9-4444-77-99--|
e------------------------------------------|


g----------------------------------------------|
d----------------------------------------------|
a-00000000-22222222-77777777/9-4/999911111111--|
e----------------------------------------------|

the ones are elevens... 4 elevens


solo:

play verse X2

g-------| X2
d-------|
a-4/0---|
e-------|

chorus X2:

g----------------------------------|
d----------------------------------|
a--4-X16--7-X16--0-X16--2-X16------|
e----------------------------------|


outro:

g-----------|
d-----------|
a--4~---7~--|
e-----------|

ight, there are little fills in the chorus and some other things, but i dont feel like 
them out. have fun with this and listen closely for the fills. it'll be fun. trust me. 
well im outie. lata *throws phone out window*
            
Submit corrections

comments powered by Disqus
↑ Back to top | The Higher Bass for Rock My Body. Lyrics for acoustic guitar and electric guitar. Tablatures and chords are parodies/interpretations of the original songs. You may use it for private study, scholarship, research or language learning purposes only