» » »

Rock My Body Tabs (ver.2)

Artists:  A B C D E F G H I J K L M N O P Q R S T U V W X Y Z # 

Rock My Body Tabs (ver.2)

The Higher
Rating:
0/5 (0 votes)

Hard to play? Try these video lessons and learn fast.
                (Intro)
-------------------------------------------------------------------------------
                          Rock My Body - The Higher
-------------------------------------------------------------------------------
EADGBE
guitar 1
Let ring---------------------------------------------------------------------
e|---0---0------0----0---0-----0----0-----0--------0----0----0------0--------|
B|-----------4---------------4------------------0-----------------0----------|
G|-6---6---6-------6---6---6-----6-----6-----6-------6-----6----6------------|
D|---------------------------------------------------------------------------|
A|---------------------------------------------------------------------------|
E|---------------------------------------------------------------------------|

guitar 2
e|--12-----------------------------------------------------------------------|
B|-----12--14----------------------------------------------------------------|
G|------------11--13^14v13---------------------------------------------------|
D|---------------------------------------------------------------------------|
A|---------------------------------------------------------------------------|
E|---------------------------------------------------------------------------|


yea thats all. :)
            
Hard to play? Try these video lessons and learn fast. | Correct




comments powered by Disqus
↑ Back to top | Tablatures and chords are parodies/interpretations of the original songs. You may use it for private study, scholarship, research or language learning purposes only