>
 >
Rock My Body

Rock My Body Guitar Tabs

The Higher - Rock My Body chords, tabs, tablatures, lyrics

Guitar lessons | Add/correct | Request | Top 50 tabs Artists:  A B C D E F G H I J K L M N O P Q R S T U V W X Y Z 0-9

Rock My Body Guitar Tabs – The Higher

CD, Sheet music, Poster

Do you like Rock My Body? Share with your friends now
Bass TabsTabsTabs v2
---------------------------------------------------------------------------
---------------------------------------------------------------------------


I decided to tab this out because nobody had the done the full tab yet.
Plus i wanted to play this for my exam in guitar class.
So I figured I'd put it up for everyone else to enjoy since i took the time to do 
exactly right.

haha awkward swan

THIS IS 100% PERFECT!!

its in the correct order and everything

MUCH LOVE Drewski2113!!!


Intro:
guitar 1
e|---0---0------0----0---0-----0----0-----0--------0----0----0------0---|x4
B|-----------4---------------4------------------0-----------------0-----|
G|-6---6---6-------6---6---6-----6-----6-----6-------6-----6----6-------|
D|----------------------------------------------------------------------|
A|----------------------------------------------------------------------|
E|----------------------------------------------------------------------|


guitar 2
e|--12-----------------------------------------------------------------|x3
B|-----12--14----------------------------------------------------------|
G|------------11--13^14v13---------------------------------------------|
D|---------------------------------------------------------------------|
A|---------------------------------------------------------------------|
E|---------------------------------------------------------------------|


Verse1:
e|--12------------------------------------------------------------|x2
B|-----12--14-----------------------------------------------------|
G|------------11--13^14v13----------------------------------------|
D|----------------------------------------------------------------|
A|----------------------------------------------------------------|
E|----------------------------------------------------------------|


Pre-Chorus:
e|---------------------|
B|---------------------|
G|--6~----9~----2~-----|
D|--6~----9~----2~-----|
A|--4~----7~----0~~----|
E|---------------------|


Chorus:
e|-------------------------------------------------------------------|x2
B|-------------------------------------------------------------------|
G|-----6-(X16)----------2-(X16)---------9-(X16)------4-(X16)---------|
D|-----6----------------2---------------7------------4---------------|
A|-----4----------------0---------------7------------2---------------|
E|-------------------------------------------------------------------|


Verse2:
e|--12-------------------------------------------------------------------|x4
B|-----12--14------------------------------------------------------------|
G|------------11--13^14v13-----------------------------------------------|
D|-----------------------------------------------------------------------|
A|-----------------------------------------------------------------------|
E|-----------------------------------------------------------------------|


Bridge:
e|-----------------------------------------------------------|x3
B|-----------------------------------------------------------|
G|-22222222----44444444----99999999---6666---99---1111-------|
D|-22222222----44444444----99999999---6666---99---1111-------|
A|-00000000----22222222----77777777---4444---77---99---------|
E|-----------------------------------------------------------|


e|---------------------------------------------------------|
B|---------------------------------------------------------|
G|-2222222--44444444--99999999---6--11111111--13131313-----|
D|-2222222--44444444--99999999---6--11111111--13131313-----|
A|-0000000--22222222--77777777---4--9999------11111111-----|
E|---------------------------------------------------------|


Solo:
if you have a crybaby wah pedal, you should totally use it here
e|--------------------------|----------------------------|
B|--------------------------|----------------------------|
G|--------------------------|-----9----------------------|
D|-------------------9--11--|--L-----11--9---------------|
A|--9----7----9--11---------|---------------11--9--7--9--|
E|--------------------------|----------------------------|


--------------------------|-----------------------|
--------------------------|-----------------------|
--------------------------|--9--------------------|
-------------------9--11--|-------11----9---------|
--L----7----9--11---------|--------------------9--|
--------------------------|-----------------------|


--------------------------|----------------------------|
--------------------------|----------------------------|
--------------------------|-----9----------------------|
-------------------9--11--|--L-----11--9---------------|
--L----7----9--11---------|---------------11--9--7--9--|
--------------------------|----------------------------|


--------------------------|-----------------------|
--------------------------|-----------------------|
--------------------------|--9--------------------|
-------------------9--11--|-------11----9------L--|
--L----7----9--11---------|-----------------------|
--------------------------|-----------------------|


---------------------------|---------------------------|
---------------------------|---------------------------|
---------------9-----------|---------------------------|
------------9-------11--9--|--11-----------------------|
--7--9--11-----------------|--------11--9--7--9--7--L--|
---------------------------|---------------------------|


---------------------------|-------------------------------|
---------------------------|---------------------------12--|
---------------9--------8--|--9--8--9--11--13--11--13------|
------------9-------11-----|-------------------------------|
--7--9--11-----------------|-------------------------------|
---------------------------|-------------------------------|


-----------------------|
--14~------------------|
-----------------------|
-----------------------|
-----------------------|
-----------------------|


Chorus:
e|-------------------------------------------------------------------|x2
B|-------------------------------------------------------------------|
G|-----6-(X16)----------2-(X16)---------9-(X16)------4-(X16)---------|
D|-----6----------------2---------------7------------4---------------|
A|-----4----------------0---------------7------------2---------------|
E|-------------------------------------------------------------------|


Outro:
e|------------------------------------------------------|x4
B|------------------------------------------------------|
G|-----6~-----------9~----4~----------------------------|
D|-----6~-----------9~----4~----------------------------|
A|-----4~-----------7~----2~----------------------------|
E|------------------------------------------------------|


End on:
e|---------------|
B|---------------|
G|-----9~--------|
D|-----9~--------|
A|-----7~--------|
E|---------------|

enjoy





Legend
----------------
L - tied note
x - dead note
g - grace note
(n) - ghost note
> - accentuded note
NH - natural harmonic
AH - artificial harmonic
TH - tapped harmonic
SH - semi harmonic
PH - pitch harmonic
h - hammer on
p - pull off
b - bend
br - bendRelease
pb - preBend
pbr - preBendRelease
brb - bendReleaseBend
\n/ - tremolo bar dip
\n - tremolo bar dive
-/n - tremolo bar Release up
/n\ - tremolo bar inverted dip
/n - tremolo bar return
-\n - tremolo bar Release down
S - shift slide
s - legato slide
/ -  slide into from below or out of upwards
\ -  slide into from above or out of downwards
~ - let it ring
W - wide vibrato
tr - trill
TP - tremolo picking
T - tapping
S - slap
P - pop
< - fade in
^ - brush up
v - brush down





Comments


Popular The Higher tabs & chords
Insurance? 1 Bass Tabs
Rock My Body Bass Tabs
Pace Yourself Chords
Circle Of Death Tabs
Dare Tabs
Histrionics 1 Tabs
Insurance Tabs
Insurance? Tabs
Insurance? 1 Tabs
The Runaway Artist Ukulele


Song lyrics



↑ Back to top | Tablatures and chords are parodies/interpretations of the original songs. You may use it for private study, scholarship, research or language learning purposes only
© 2014 AZChords.com Contact us | Privacy policy | DMCA | Add/correct tabs | Request tabs | Top 50 tabs