» » »

Yesterday Today And Probably Tomorrow Tabs (ver.2)

Artists:  A B C D E F G H I J K L M N O P Q R S T U V W X Y Z # 

Yesterday Today And Probably Tomorrow Tabs (ver.2)

The Courteeners
Rating:
0/5 (0 votes)

Hard to play? Try these video lessons and learn fast.
                This is played with Capo on the 6th fret

The same pattern is played throughout but with slightly different variations. I have 
if anyone has any tips then crack on. This is my first tab. cheers


---------3-----0-----3-----0------|
----------------------------------|
---0---0-----0-----0-----0-----0--|  x2
----------------------------------|
-----2-----2-----------2-----2----|
-3---------------3----------------|

---------3-----0-----3-----0------|
----------------------------------|
---0---0-----0-----0-----0--------|
-----2-----2-----------2----------|
-3---------------3----------------|
----------------------------------|

-----0-----0----|
----------------|
-------0--------|
----------------|
-3/5-----5------|
----------------|
            
Hard to play? Try these video lessons and learn fast. | Correct




comments powered by Disqus
↑ Back to top | Tablatures and chords are parodies/interpretations of the original songs. You may use it for private study, scholarship, research or language learning purposes only