» » »

The Courteeners, Not Nineteen Forever Bass tabs (ver.1)

Artists:  A B C D E F G H I J K L M N O P Q R S T U V W X Y Z # 

Not Nineteen Forever Bass tabs (ver.1)

The Courteeners Tabs
 Rating:
3.5/5 (8 votes)
Not Nineteen Forever lessons Tabs too difficult? Try these video lessons and learn fast
1
                The Courteneers-Not Nineteen Forever
Standard EADG Tuning

G|----------------------------------------------------------|
D|----------------------------------------------------------|
A|-44444444-55555555-999-77777-999-77777--------------------|
E|----------------------------------------------------------|
x5

G|--------------------------------------------------------------------|
D|--------------------------------------------------------------------|
A|-44444444-55555555-999-77777-999-77777-12-12-12---------------------|
E|--------------------------------------------------------------------|

Chorus
G|---------------------------------------------------------------------|
D|---------------------------------------------------------------------|
A|-44444444-55555555-999-77777-999-777-22------------------------------|
E|---------------------------------------------------------------------|
x4

Pre-Verse
G|------------------------------------------------------------------|
D|------------------------------------------------------------------|
A|--44444444--55555555--999--77777--999--77777----------------------|
E|------------------------------------------------------------------|
x2

Verse
G|-------------------------------------------------------------|
D|-------------------------------------------------------------|
A|--4(Hold)--5(Hold)--999--77777--999--77777-------------------|
E|-------------------------------------------------------------|


G|------------------------------------------------------------------|
D|------------------------------------------------------------------|
A|--44444444--55555555--999--77777--999--77777----------------------|
E|------------------------------------------------------------------|
x2

G|----------------------------------------------------------------------------|
D|----------------------------------------------------------------------------|
A|--44444444--55555555--999--7777--999--7777--12-12-12------------------------|
E|----------------------------------------------------------------------------|


Chorus
G|---------------------------------------------------------------------|
D|-------------------------------------------------------- ------------|
A|--44444444--55555555--999--77777--999--777--22-----------------------|
E|---------------------------------------------------------------------|
x3

Chorus
G|-----------------------------------------------|
D|-----------------------------------------------|
A|--44444444--55555555--7--9(hold)---------------|
E|-----------------------------------------------|

Bridge
G|--------------------------------------------------------------|
D|--------------------------------------------------------------|
A|--44--44--44--2--22-22--99--77--99--77--9797------------------|
E|--------------------------------------------------------------|

G|------------------------------------------------|
D|------------------------------------------------|
A|--44--44--44--2--22-22--7--9(Hold)--------------|
E|------------------------------------------------|

Quiet Chorus
G|--------------------------------------------------------------------------|
D|--------------------------------------------------------16--14--11--------|
A|--16(Sixteens)(Hold)--17(Seventeens)(Hold)--------------------------------|
E|--------------------------------------------------------------------------|

G|----------------------------------------------------------------------------|
D|--------------------------------------------------------14--16(Hold)--------|
A|--16(Sixteens)(Hold)--17(Seventeens)(Hold)----------------------------------|
E|----------------------------------------------------------------------------|

Pre-Outro
G|------------------------------------------------------------------|
D|------------------------------------------------------------------|
A|--44444444--55555555--999--77777--999--77777----------------------|
E|------------------------------------------------------------------|
x4

Outro
G|-------------------------------------|
D|-------------------------------------|
A|--4(Hold)--5(Hold)--9(Hold)----------|
E|-------------------------------------|

G|-------------------------------------|
D|-------------------------------------|
A|--4(Hold)--5(Hold)--2(Hold)----------|
E|-------------------------------------|
            
Submit corrections

comments powered by Disqus
↑ Back to top | The Courteeners Bass for Not Nineteen Forever. Lyrics for acoustic guitar and electric guitar. 1 Tablatures and chords are parodies/interpretations of the original songs. You may use it for private study, scholarship, research or language learning purposes only