» » »

Good Times Are Calling Chords (ver.1)

Artists:  A B C D E F G H I J K L M N O P Q R S T U V W X Y Z # 

Good Times Are Calling Chords (ver.1)

The Courteeners
Rating:
5/5 (1 vote)

Tabs too difficult? Try these video lessons and learn fast.
                Chords:

BASICALLY E, F#m, B, A.

E1 - Open E
E2 - A shaped Barr 7th
F#m - at 2nd fret
F#m - Am shaped Barr 9th
B - E shaped Barr
A - E shaped Barr

Intro:


--------------------------------------------------|
----9-------9---------10---------10---------------|
-9-------9--------  11--------11------------------|
-9----9--9-----9----11----11--11----11--13--16----|
--------------------------------------------------|
--------------------------------------------------|

-7-7-7-7-----    --9--9--9--9-------     9------------------|
-9-9-9-9(9)--    --10-10-10-10(10)-      10-----------------|
-9-9-9-9----     --11-11-11-11-----  x2  9------------------|
-9-9-9-9(9)- x2  --11-11-11-11(10)-     -13-----------------|
-7-7-7-9----     --9--9--9--9----       -9------------------|
-7-7-7-9----     --9--9--9--9----       -9------------------|


              E1
I'm In Manchester
               F#m1     B
While youre in London town
                E1
I'm ahving the time of my life
         F#m1           B
but I'm dying to go round
E2           E2
I don't know if I should
F#m1
Come see you
B
For you i am falling
E2
I am young
E2
Ineed life
F#m
more than i need a wife
     A              B
the good times are calling me


E2, F#m2, B x2

E1, F#m1, B x2

(Play this with E2, F#m2, B)

Do you remember the days when you dropped all your weight
those were the days we would stay up for 3 straight
allt he boys looking sharp
and you were top of the class
girls thought they were blondie
with their hearts of glass

E2           E2
I don't know if I should
F#m1
Come see you
B
For you i am falling
E2
I am young
E2
Ineed life
F#m
more than i need a wife
     A              B       A...
the good times are calling me

...B, A, B, E, B (The E to B is a quick change over ie one strum)

E2, F#m2, B x4

E2           E2
I don't know if I should
F#m1
Come see you
B
For you i am falling
E2
I am young
E2
Ineed life
F#m
more than i need a wife
     Ab              B
the good times are calling me

Outro:

E2 x4
            
Tabs too difficult? Try these video lessons and learn fast.


comments powered by Disqus
↑ Back to top | Tablatures and chords are parodies/interpretations of the original songs. You may use it for private study, scholarship, research or language learning purposes only