» » »

The Click Five, Just The Girl Tabs (ver.1)

Artists:  A B C D E F G H I J K L M N O P Q R S T U V W X Y Z # 

Just The Girl Tabs (ver.1)

The Click Five Tabs
 Rating:
4/5 (18 votes)
Just The Girl lessons Tabs too difficult? Try these video lessons and learn fast
                ----------------------------------------------------------------------------
----------------------------------------------------------------------------

Tuning: EADGBe (Standard)
 
Intro:
e|-------------------------------------------------------------------------|
B|-------------------------------------------------------------------------|
G|---------------------------------14------\13-13-13-13/14-14-14-14\2------|
D|-7-7-7-7-7-7-7-7/9-9-9/7-7-7-7-7-14-(13x)\13-13-13-13/14-14-14-14\2------|
A|-7-7-7-7-7-7-7-7/7-7-7/5-5-5-5-5-12------\11-11-11-11/12-12-12-12\0------|
E|-5-5-5-5-5-5-5-5/7-7-7---------------------------------------------------|

Verse (Guitar 1):
e|-------------------------------------------------------------------------|
B|-------------------------------------------------------------------------|
G|-------------------------------------------------------------------------|
D|-----------------9-9-9-9-7-7-7-7-----------------9-9-9-9-7-7-7-7---------|
A|-7-7-7-7-7-7-7-7-7-7-7-7-5-5-5-5-7-7-7-7-7-7-7-7-7-7-7-7-5-5-5-5---------|
E|-5-5-5-5-5-5-5-5-----------------5-5-5-5-5-5-5-5-------------------------|
 Pm. . . . . . . . . . . . . . . . . . . . . . . . . . . . . . . .
                                                                          7
  **Play this twice, then play twice again, but do not palm mute the last 5 

Verse (Guitar 2)(keyboard):
e|-------------------------------------------------------------------------|
B|-------------------------------------------------------------------------|
G|-------------------------------------------------------------------------|
D|-------------------------------------------------------------------------|
A|----------------------------------4-5-4-2--0-----------------------------|
E|-------------------------------------------------4--5--2~----------------|

End Verse:
e|-------------------------------------------------------------------------|
B|-------------------------------------------------------------------------|
G|----------7-7-7-7-7-7-7-7------------------------------------------------|
D|----------7-7-7-7-7-7-7-7------------------------------------------------|
A|-9~-------5-5-5-5-5-5-5-5------------------------------------------------|
E|-7~----------------------------------------------------------------------|

Chorus:
e|-------------------------------------------------------------------------|
B|-------------------------------------------------------------------------|
G|---9---7-------------9---7-----------------------------------------------|
D|-7-9-4-7-7-9-7-----7-9-4-7-9-7-------------------------------------------|
A|-7-7-4-5-7-9-7-----7-7-4-5-9-7-------------------------------------------|
E|-5---2---5-7-5-----5---2---7-5-------------------------------------------|

*Repeat Verse*


Verse 2 (Guitar 2) (Keyboard):
e|4-5-7--4-5-7--4-5--2-----------------------------------------------------|
B|-------------------------------------------------------------------------|
G|-------------------------------------------------------------------------|
D|-------------------------------------------------------------------------|
A|-------------------------------------------------------------------------|
E|-------------------------------------------------------------------------|

*Chorus*

Interlude:
e|-----------------|
B|-----------------|
G|-----7------6-7-9|
D|-7-9-7-9--9-6-7-9|
A|-7-9-5-9--9-4-5-7|
E|-5-7---7--7------|
Breakdown:
e|-------------------------------------------------------------------------|
B|-------------------------------------------------------------------------|
G|-------------------------------------------------------------------------|
D|-------9-7--------------------------------9~--9-9-9-9-7-7-7-7------------|
A|-7~----7-5--7---7-7-7-7-7-7-7-7-7-7-7-7-7-7~--7-7-7-7-5-5-5-5------------|
E|-5~---------5---5-5-5-5-5-5-5-5-5-5-5-5-5--------------------------------|
                Pm. . . . . . . . . . . . .

Then play Chorus 3 times and then play the intro.
| /  slide up
| \  slide down
| h  hammer-on
| p  pull-off
| ~  vibrato
| +  harmonic
| x  Mute note
============================================================================
            
Submit corrections

comments powered by Disqus
↑ Back to top | The Click Five Tabs for Just The Girl. Lyrics for acoustic guitar and electric guitar. Tablatures and chords are parodies/interpretations of the original songs. You may use it for private study, scholarship, research or language learning purposes only