» » »

The Click Five, Just The Girl Tabs (ver.3)

Artists:  A B C D E F G H I J K L M N O P Q R S T U V W X Y Z # 

Just The Girl Tabs (ver.3)

The Click Five Tabs
 Rating:
4/5 (8 votes)
Just The Girl lessons Tabs too difficult? Try these video lessons and learn fast
                this is a really easy song and none of the other tabs seem to have the right intro so here it is....

intro:
e--00000000 0 0 0 00000-----17171717171717171919191717171717---------------|
g--99999999 12121299999-----17171717171717171717171717171717---------------|
b--------------------------------------------------------------------------|
d--------------------------------------------------------------------------|
a--------------------------------------------------------------------------|
e--------------------------------------------------------------------------|

verse:
e--------------------------------------------------------------------------|
g--------------------------------------------------------------------------|
b-------------999---77777--------------------------------------------------|
d--77777777---999---77777---X7---------------------------------------------|
a--77777777---777---55555--------------------------------------------------|
e--55555555----------------------------------------------------------------|
palm mute****************************************************************(palm mute in 
verse throughout the song)

end of verse
e--------------------------------------------------------------------------|
g--------------------------------------------------------------------------|
b--9---------------------77777777------------------------------------------|
d--9-hold for 4 beats----77777777------------------------------------------|
a--7---------------------55555555------------------------------------------|
e--------------------------------------------------------------------------|
(no palm mute)

chorus:
e--------------------------------------------------------------------------|
g--------------------------------------------------------------------------|
b--------999--------777-------------9999---7777----------------------------|
d--777---999--444---777--77777777---9999---7777----------------------------|
a--777---777--444---555--77777777---7777---5555----------------------------|
e--555--------222--------55555555------------------------------------------|

e--------------------------------------------------------------------------|
g--------------------------------------------------------------------------|
b--------999--------777--99999999---77777777-------------------------------|
d--777---999--444---777--99999999---77777777---7---------------------------|
a--777---777--444---555--77777777---55555555---7(hold for 4 beats)---------|
e--555--------222------------------------------5---------------------------|

intro

verse #2:
e---------------------------------------------------------------------------|
g---------------------------------------------------------------------------|
b------------999--77777-----------------------------------------------------|
d--77777777--999--77777--11-12-11-9-7-6-4--(listen to song for melody)------|X3
a--77777777--777--55555--0--0--0--0-0-0-0-----------------------------------|
e--55555555-----------------------------------------------------------------|
(palm mute again*********************************************************)

e--------------------------------------------------------------------------|
g--------------------------------------------------------------------------|
b------------999--7777---9---------------------77777777--------------------|
d--77777777--999--7777---9(hold for 4 beats)---77777777--------------------|
a--77777777--777--5555---7---------------------55555555--------------------|
e--55555555----------------------------------------------------------------|

chorus #2:
e--------------------------------------------------------------------------|
g--------------------------------------------------------------------------|
b--------999--------777-------------9999---7777----------------------------|
d--777---999--444---777--77777777---9999---7777----------------------------|
a--777---777--444---555--77777777---7777---5555----------------------------|
e--555--------222--------55555555------------------------------------------|

e--------------------------------------------------------------------------|
g--------------------------------------------------------------------------|
b--------999--------777--99999999---77777777-------------------------------|
d--777---999--444---777--99999999---77777777---77777777--------------------|
a--777---777--444---555--77777777---55555555---77777777--------------------|
e--555--------222------------------------------55555555--------------------|

bridge:
e--------------------------------------------------------------------------|
g----------222222------------------------------222222----------------------|
b----------222222--44444444--99999999----------222222--77777777-44444444---|
d--444444--222222--44444444--99999999--444444--222222--77777777-44444444---|
a--444444----------22222222--77778888--444444----------55554444-22220000---|
e--222222------------------------------222222------------------------------|

e--------------------------------------------------------------------------|
g--------------------------------------------------------------------------|
b------------7-------------------------------------------------------------|
d--55555555--7(hold for 4 beats)-------------------------------------------|
a--55555555--5-------------------------------------------------------------|
e--33333333----------------------------------------------------------------|

end of bridge: (guitar 1)
e--0-----------------------------------------------------------------------|
g--5-------------------/9--7-----------------------------------------------|
b--6(hold for 4 beats)-/9--7(hold for 4 beats)--X2-------------------------|
d--7-------------------/9--7-----------------------------------------------|
a--------------------------------------------------------------------------|
e--------------------------------------------------------------------------|

end of bridge: (guitar 2)
e--------------------------------------------------------------------------|
g--------------------------------------------------------------------------|
b--------------------------------------------------------------------------|
d--7-----------------------------------------------------------------------|
a--7(hold chord till the build up)listen to song to figure it out----------|
e--5-----------------------------------------------------------------------|

build up into chorus:
e--------------------------------------------------------------------------|
g--------------------------------------------------------------------------|
b-------------999--7777-----------9--------------------7777777777----------|
d--77777777---999--7777-----------9(hold for 4 beats)--7777777777----------|
a--77777777---777--5555-----------7--------------------5555555555----------|
e--55555555----------------------------------------------------------------|
(palm mute************** end here)

chorus #3:
e--------------------------------------------------------------------------|
g--------------------------------------------------------------------------|
b--------999--------777-------------9999---7777----------------------------|
d--777---999--444---777--77777777---9999---7777----------------------------|
a--777---777--444---555--77777777---7777---5555----------------------------|
e--555--------222--------55555555------------------------------------------|

e--------------------------------------------------------------------------|
g--------------------------------------------------------------------------|
b--------999--------777--99999999---77777777-------------------------------|
d--777---999--444---777--99999999---77777777-------------------------------|
a--777---777--444---555--77777777---55555555-------------------------------|
e--555--------222----------------------------------------------------------|

e--------------------------------------------------------------------------|
g--------------------------------------------------------------------------|
b--------999--------777-------------9999---7777----------------------------|
d--777---999--444---777--77777777---9999---7777----------------------------|
a--777---777--444---555--77777777---7777---5555----------------------------|
e--555--------222--------55555555------------------------------------------|

e---------------------------------------------------------------------------|
g---------------------------------------------------------------------------|
b--------999--------777--99999999---77777777--99999999--77777777------------|
d--777---999--444---777--99999999---77777777--99999999--77777777------------|
a--777---777--444---555--77777777---55555555--77777777--55555555------------|
e--555--------222-----------------------------------------------------------|

e--------------------------------------------------------------------------|
g--------------------------------------------------------------------------|
b---------------------9----------------------------------------------------|
d--7------------------9----------------------------------------------------|
a--7(hold for 6 beats)7----------------------------------------------------|
e--5-----------------------------------------------------------------------|

outro:
e--00000000-0-0-0-00000-----17171717171717171919191717171717---------------|
g--99999999-12121299999-----17171717171717171717171717171717---------------|
b--------------------------------------------------------------------------|
d--------------------------------------------------------------------------|
a--------------------------------------------------------------------------|
e--------------------------------------------------------------------------|

e--00000000 0 0 0 00000-----171717171717171719--------------------2---------|
g--99999999 12121299999-----171717171717171717(hold for 4 beats)--3---------|fade out
b-----------------------------------------------------------------2---------|
d---------------------------------------------------------------------------|
a---------------------------------------------------------------------------|
e---------------------------------------------------------------------------|

like i said it's a really easy song, i know it's 100% correct because i played it with 
song and it sounds perfect.  this is an awesome song and the click five rule! rate this please.
                                 Rick
            
Submit corrections

comments powered by Disqus
↑ Back to top | The Click Five Tabs for Just The Girl. Lyrics for acoustic guitar and electric guitar. Tablatures and chords are parodies/interpretations of the original songs. You may use it for private study, scholarship, research or language learning purposes only