» » »

Good Day Tabs (ver.1)

Artists:  A B C D E F G H I J K L M N O P Q R S T U V W X Y Z # 

Good Day Tabs (ver.1)

The Click Five
Rating:
0/5 (0 votes)

Hard to play? Try these video lessons and learn fast.
                Guitar 1

Intro
Db 466644

Verse
--------------------------------------|
--------------------------------------|
--6------------------6----------------|
--6--6--4--6--8------6--6--4--6--8----|
--4--6--4--6--8------4--6--4--6--8----|
-----4--2--4--6---------4--2--4--6----|

Guitar 2 after "Wait for my alarm to go"
--21-20-----------|
--------21--18----|
------------------|
------------------|
------------------|
------------------|

Pre-chorus
-------------|
-------------|
-------------|  4 times
---4--6--8---|
---4--6--8---|
---2--4--6---|

Chorus
-------------------------------|
-------------------------------|
---6-----------6---------------|
---6--6--8--4--6--6--8--4------|
---4--6--8--4--4--6--8--4------|
------4--6--2-----4--6--2------|

Bridge
Guitar 1
------------------|
------------------|
--------4---------|
--4--6--4--6--8---|
--4--6--2--6--8---|
--2--4-----4--6---|

Guitar2
--12----10--12------|
-----12---------12--|
--------------------|
--------------------|
--------------------|
--------------------|

Outro
Db 466644

the other part of guitar 2 is quite same with guitar 1

Order of Song:


  Intro
  Verse
  Pre Chorus
  Chorus
  Verse
  Pre Chorus
  Chorus
  Bridge
  Pre Chorus(Only Keyboard or Guitar 2)
  Chorus (Repeat)
  Outro
            
Hard to play? Try these video lessons and learn fast. | Correct




comments powered by Disqus
↑ Back to top | Tablatures and chords are parodies/interpretations of the original songs. You may use it for private study, scholarship, research or language learning purposes only