» » »

Good Day Bass tabs (ver.1)

Artists:  A B C D E F G H I J K L M N O P Q R S T U V W X Y Z # 

Good Day Bass tabs (ver.1)

The Click Five
Rating:
0/5 (0 votes)

Hard to play? Try these video lessons and learn fast.
                
Time Signature: 4/4
p - pull off
h - hammer on

Intro
 |       |       |       |        |       |       |       |        
G|--------------------------------|--------------------------------|
D|11---------11--11--11--11--11-s-|6----------6---6---8---6--------|
A|--------------------------------|--------------------------------|
E|--------------------------------|--------------------------------|

 |       |       |       |        |       |       |       |        
G|--------------------------------|--------------------------------|
D|4----------4---4---4---4---4--s-|8------8-------6-------6---6--s-|
A|--------------------------------|--------------------------------|
E|--------------------------------|--------------------------------|

 |       |       |       |        |       |       |       |        
G|-----------------------10--13---|---13------11--13--15--13-------|
D|11---------11--11--13-----------|--------------------------------|
A|--------------------------------|--------------------------------|
E|--------------------------------|--------------------------------|

 |       |       |       |        |       |       |       |        
G|11---------11--11--10-----------|--------------------------------|
D|-----------------------11-------|--------------------------------|
A|--------------------------------|13-----13------11------11-------|
E|--------------------------------|--------------------------------|

Verse(without first four bars)
 |        |       |       |        |       |       |       |        
G|--------------------------------|--------------------------------|
D|--------------------------------|--------------------------------|
A|--------------------------------|--------------------------------|
E|--------------------------------|--------------------------------|

 |        |       |       |        |       |       |       |        
G|--------------------------------|--------------------------------|
D|--------------------------------|--------------------------------|
A|--------------------------------|--------------------------------|
E|--------------------------------|--------------------------------|
 
 |        |       |       |       |        |       |       |        
G|--------------------------------|--------------------------------|
D|11--11--11--11--11--11--11--11--|--------------------------------|
A|--------------------------------|11--11--11--11--11--11--11--11--|
E|--------------------------------|--------------------------------|

 |        |       |       |       |        |       |       |        
G|--------------------------------|--------------------------------|
D|--------------------------------|--------------------------------|
A|9---9---9---9---11--11--11--11--|8---8---8---8---8---8---8---8---|
E|--------------------------------|--------------------------------|

 |        |       |       |       |        |       |       |        
G|--------------------------------|--------------------------------|
D|--------------------------------|----------------11--11--11--11--|
A|9---9---9---9---11--11--11--11--|13--13--13--13------------------|
E|--------------------------------|--------------------------------|
 |        |       |       |       |        |       |       |        
G|--------------------------------|--------------------------------|
D|--------------------------------|--------------------------------|
A|9---9---9---9---11--11--11--11--|13--13--13--11--13--14--13--11--|
E|--------------------------------|--------------------------------|

 |        |       |       |       |        |       |       |        
G|--------------------------------|--------------------------------|
D|--------------------------------|----------------11--11--11--11--|
A|9---9---9---9---11--11--11--11--|13--13--13--13------------------|
E|--------------------------------|--------------------------------|

 |        |       |       |       |        |       |       |        
G|--------------------------------|----------------13--13--13--13--|
D|9---9---9---9---9---9---9---9---|--------------------------------|
A|--------------------------------|11--11--11--11-s----------------|
E|--------------------------------|--------------------------------|

Chorus
 |        |       |       |       |        |       |       |        
G|------------------------10------|--------------------------------|
D|11----------11--11--13------10--|--------------------------------|
A|--------------------------------|--------------------------------|
E|--------------------------------|--------------------------------|

 |        |       |       |       |        |       |       |        
G|--------------------------------|--------------------------------|
D|--------------------10--11------|--------------------------------|
A|13----------13--13----------9---|----------------------------11--|
E|--------------------------------|--------------------------------|

 |        |       |       |       |        |       |       |        
G|--------------------------------|--------------------------------|
D|11------------------------------|--------------------------------|
A|----------------------------11--|--------------------------------|
E|--------------------------------|--------------------------------|

 |        |       |       |       |        |       |       |        
G|--------------------------------|--------------------------------|
D|------------------------10--11--|--------------------------------|
A|13------------------------------|9-------------------------------|
E|--------------------------------|--------------------------------|

 |        |       |       |            
G|--------------------------------|
D|--------------------------------|
A|9-slide down--------------------|
E|--------------------------------|

Interlude
 |       |       |       |        |       |       |       |        
G|--------------------------------|--------------------------------|
D|11---------11--11--11--11--11-s-|6----------6---6---8---6--------|
A|--------------------------------|--------------------------------|
E|--------------------------------|--------------------------------|

 |       |       |       |        |       |       |       |        
G|--------------------------------|--------------------------------|
D|4----------4---4---4---4---4--s-|8------8-------6-------6---6--s-|
A|--------------------------------|--------------------------------|
E|--------------------------------|--------------------------------|

Verse(with added first 4 bars as below)
First 4 bars
 |        |       |       |       |        |       |       |        
G|--------------------------------|--------------------------------|
D|11--11--11--11--11--11--11--11--|--------------------------------|
A|--------------------------------|11--11--11--11--11--11--11--11--|
E|--------------------------------|--------------------------------|

 |        |       |       |       |        |       |       |        
G|--------------------------------|--------------------------------|
D|--------------------------------|--------------------------------|
A|9---9---9---9---11--11--11--11--|13--13--13--13--13--13--13--11--|
E|--------------------------------|--------------------------------|

 |        |       |       |       |        |       |       |        
G|--------------------------------|--------------------------------|
D|11--11--11--11--11--11--11--11--|--------------------------------|
A|--------------------------------|11--11--11--11--11--11--11--11--|
E|--------------------------------|--------------------------------|

 |        |       |       |       |        |       |       |        
G|--------------------------------|--------------------------------|
D|--------------------------------|--------------------------------|
A|9---9---9---9---11--11--11--11--|8---8---8---8---8---8---8---8---|
E|--------------------------------|--------------------------------|

 |        |       |       |       |        |       |       |        
G|--------------------------------|--------------------------------|
D|--------------------------------|----------------11--11--11--11--|
A|9---9---9---9---11--11--11--11--|13--13--13--13------------------|
E|--------------------------------|--------------------------------|
 |        |       |       |       |        |       |       |        
G|--------------------------------|--------------------------------|
D|--------------------------------|--------------------------------|
A|9---9---9---9---11--11--11--11--|13--13--13--11--13--14--13--11--|
E|--------------------------------|--------------------------------|

 |        |       |       |       |        |       |       |        
G|--------------------------------|--------------------------------|
D|--------------------------------|----------------11--11--11--11--|
A|9---9---9---9---11--11--11--11--|13--13--13--13------------------|
E|--------------------------------|--------------------------------|
 
 |        |       |       |       |        |       |       |        
G|--------------------------------|--------------------------------|
D|9---9---9---9---9---9---9---9---|--------------------------------|
A|--------------------------------|11--11--11--11-slide up---------|
E|--------------------------------|--------------------------------|

Chorus
 |        |       |       |       |        |       |       |        
G|------------------------10------|--------------------------------|
D|11----------11--11--13------10--|--------------------------------|
A|--------------------------------|--------------------------------|
E|--------------------------------|--------------------------------|

 |        |       |       |       |        |       |       |        
G|--------------------------------|--------------------------------|
D|--------------------10--11------|--------------------------------|
A|13----------13--13----------9---|----------------------------11--|
E|--------------------------------|--------------------------------|

 |        |       |       |       |        |       |       |        
G|--------------------------------|--------------------------------|
D|11------------------------------|--------------------------------|
A|----------------------------11--|--------------------------------|
E|--------------------------------|--------------------------------|

 |        |       |       |       |        |       |       |        
G|--------------------------------|--------------------------------|
D|------------------------10--11--|--------------------------------|
A|13------------------------------|9-------------------------------|
E|--------------------------------|--------------------------------|

 |        |       |       |            
G|--------------------------------|
D|--------------------------------|
A|9-slide down--------------------|
E|--------------------------------|

Bridge
 |        |       |       |       |        |       |       |        
G|--------------------------------|--------------------------------|
D|--------------------------------|--------------------------------|
A|13------------------------------|--------------------------------|
E|--------------------------------|--------------------------------|

 |        |       |       |       |        |       |       |        
G|--------------------------------|--------------------------------|
D|--------------------------------|--------------------------------|
A|--------------------------------|--------------------------------|
E|11------------------------------|--------------------------------|

 |        |       |       |       |        |       |       |        
G|--------------------------------|--------------------------------|
D|--------------------------------|--------------------------------|
A|11------------------------------|12------------------------------|
E|--------------------------------|--------------------------------|

 |        |       |       |       |        |       |       |        
G|--------------------------------|--------------------------------|
D|--------------------------------|--------------------------------|
A|13--------------11--13--11------|--------------------------------|
E|----------------------------11--|--------------------------------|

 |        |       |       |       |
G|--------------------------------|--------------------------------|
D|--------------------------------|--------------------------------|
A|13--------------11--13--11------|--------------------------------|
E|----------------------------11--|--------------------------------|

 |        |       |       |       |
G|--------------------------------|--------------------------------|
D|--------------------------------|--------------------------------|
A|13--------------11--13--11------|--------------------------------|
E|----------------------------11--|--------------------------------|


Verse (without bits n pieces)
I’m freaking out...
 |        |       |       |       |        |       |       |        
G|--------------------------------|--------------------------------|
D|--------------------------------|--------------------------------|
A|--------------------------------|--------------------------------|
E|--------------------------------|--------------------------------|
                                               Cause it’s no fun...
 |        |       |       |       |        |       |       |        
G|--------------------------------|--------------------------------|
D|--------------------------------|--------------------------------|
A|--------------------------------|------------11--13--15--13--11--|
E|--------------------------------|--------------------------------|

 |        |       |       |       |        |       |       |        
G|--------------------------------|--------------------------------|
D|--------------------------------|----------------11--11--11--11--|
A|9---9---9---9---11--11--11--11--|13--13--13--13------------------|
E|--------------------------------|--------------------------------|

 |        |       |       |       |        |       |       |        
G|--------------------------------|--------------------------------|
D|9---9---9---9---9---9---9---9---|9---9---9---9---9---9---9---9---|
A|--------------------------------|--------------------------------|
E|--------------------------------|--------------------------------|

 |        |       |       |       | 
G|--------------------------------|
D|9---9---9---9---9---9---9---9---|
A|--------------------------------|
E|--------------------------------|

Chorus(with bits n pieces missing)
              You’re looking for something..
 |        |       |       |       |        |       |       |        
G|--------------------------------|--------------------------------|
D|--------------------------------|--------------------------------|
A|--------------------------------|--------------------------------|
E|--------------------------------|--------------------------------|
                                        You’ll lose your mind...
 |        |       |       |       |        |       |       |        
G|--------------------------------|--------------------------------|
D|--------------------------------|--------------------------------|
A|--------------------------------|--------------------13--11------|
E|--------------------------------|--------------------------------|

 |        |       |       |       |        |       |       |        
G|--------------------------------|--------------------------------|
D|11-(mute straight away)---------|--------------------------------|
A|--------------------------------|--------------------------------|
E|--------------------------------|--------------------------------|
 z                                  waaaaaaaaaaayyyyyyyyyyyyyyyy
 |        |       |       |       |        |       |       |        
G|--------------------------------|--------------------------------|
D|--------------------------------|----------------------------11--|
A|--------------------------------|------------13--9-------11------|
E|--------------------------------|--------------------------------|

 |        |       |       |       |        |       |       |        
G|------------------------10------|--------------------------------|
D|------------11--11--13------10--|--------------------------------|
A|--------------------------------|--------------------------------|
E|--------------------------------|--------------------------------|

 |        |       |       |       |        |       |       |        
G|--------------------------------|--------------------------------|
D|------------------------10--11--|--------------------------------|
A|13------------------------------|9---------------------------11--|
E|--------------------------------|--------------------------------|

 |        |       |       |       |        |       |       |        
G|--------------------------------|--------------------------------|
D|11------------------------------|--------------------------------|
A|--------------------------------|11------------------------------|
E|--------------------------------|--------------------------------|

 |        |       |       |       |        |       |       |        
G|--------------------------------|11------------------------------|
D|8-----------------------10--11--|--------------------9---8---9---|
A|--------------------------------|--------------------------------|
E|--------------------------------|--------------------------------|

 |        |       |       |       |        |       |       |        
G|--------------------------------|--------------------------------|
D|11------------------------------|10------------------------------|
A|--------------------------------|--------------------------------|
E|--------------------------------|--------------------------------|

 |        |       |       |       |    *    |       |       |        
G|--------------------------------|--------------------------------|
D|--------------------------------|--------------------------------|
A|13------------------------------|9-----------------------9---8---|
E|--------------------------------|--------------------9-----------|

 |        |       |       |       |        |       |       |        
G|--------------------------------|--------------------------------|
D|--------------------------------|--------------------------------|
A|--------------------------------|--------------------------------|
E|9-------------------------------|4-------------------------------|

 |        |       |       |       |        |       |       |        
G|--------------------------------|--------------------------------|
D|--------------------------------|--------------------------------|
A|--------------------------------|9-------------------------------|
E|6-----------------------8---9---|--------------------------------|

 |        |       |       |       | 
G|--------------------------------|
D|--------------------------------|
A|9-(slide down)------------------|
E|--------------------------------|

Outro
 |        |       |       |       |        |       |       |        
G|--------------------------------|--------------------------------|
D|11----------11--11--10--11------|--------------------------------|
A|----------------------------11--|----11------11------11--13--11--|
E|--------------------------------|--------------------------------|

 |        |       |       |       |        |       |       |        
G|--------------------------------|--------------------------------|
D|--------------------------------|----------------------------10--|
A|9-----------9---8---9-------13--|----13------11------11--13------|
E|--------------------------------|--------------------------------|

 |        |       |       |       |        |       |       |        
G|------------------------10--13--|--------13--10--13--15--13------|
D|11----------11--11--13----------|--------------------------------|
A|--------------------------------|--------------------------------|
E|--------------------------------|--------------------------------|

 |        |       |       |       |        |       |       |        
G|11----------11--11--10----------|--------------------------------|
D|------------------------11------|--------------------------------|
A|--------------------------------|13------13------11------11------|
E|--------------------------------|--------------------------------|
            
Hard to play? Try these video lessons and learn fast. | Correct




comments powered by Disqus
↑ Back to top | Tablatures and chords are parodies/interpretations of the original songs. You may use it for private study, scholarship, research or language learning purposes only