» » »

The Cab, Take My Hand Tabs (ver.3)

Artists:  A B C D E F G H I J K L M N O P Q R S T U V W X Y Z # 

Take My Hand Tabs (ver.3)

The Cab Tabs
 Rating:
4/5 (4 votes)
Take My Hand lessons Tabs too difficult? Try these video lessons and learn fast
1
                -------------------------------------------------------------------------------
-------------------------------------------------------------------------------

Tuning: Standard

Intro
e|---6---6---8---8-----|
B|-----6---6---6---6---|
G|---------------------|
D|---------------------| 4x
A|---------------------|
E|---------------------|

Verse 1
e|-------------------------------------|
B|-------------------------------------|
G|-------------------------------------|
D|---55-555--88-888--33-333--1-1-1-1---| 2x
A|---55-555--88-888--33-333--1-1-1-1---|
E|---55-555--88-888--33-333--1-1-1-1---|
PM   .. ...  .. ...  .. ...  

Pre-Chorus:
Rhythm (same chords as verse)
Lead
e|---------------------------------------------------------|
B|---10--15-14-15--10-15-14-15---10--15-14-15---14-15-17---|
G|----x---x--x--x---x--x--x--x----x---x--x--x----x--x--x---|
D|----8--13-12-13---8-13-12-13----8--13-12-13---12-13-15---| 
A|---------------------------------------------------------|
E|---------------------------------------------------------|

e|------------------------------------|
B|---10--15-14-15--10-15-14-15---10---|
G|----x---x--x--x---x--x--x--x----x---|
D|----8--13-12-13---8-13-12-13----8---| 
A|------------------------------------|
E|------------------------------------|

e|-----------------------------------|
B|-----------------------------------|
G|---3333-s-5555-s-7777-s-10101010---|
D|---xxxx-s-xxxx-s-xxxx-s-x-x-x-x----|
A|---1111-s-3333-s-5555-s-8-8-8-8----|
E|-----------------------------------|

Chorus:
Rhythm
e|--------------------|
B|--------------------|
G|--------------------|
D|---11--55--33--88---| 4x
A|---11--55--33--88---|
E|---11--55--33--88---|

e|---------------------|
B|---------------------|
G|---------------------|
D|---1x1x1x1x1x1x1x1---|
A|---1x1x1x1x1x1x1x1---|
E|---1x1x1x1x1x1x1x1---|

Lead
e|-----------------------------------------------------------|
B|-----------------------------------------------------------|
G|--101010--777--555--7-5-3---101010--777--1414141414-1515---|
D|---x-x-x--xxx--xxx--x-x-x----x-x-x--xxx---x-x-x-x-x--x-x---| 2x
A|---8-8-8--555--333--5-3-1----8-8-8--555--1212121212-1313---|
E|-----------------------------------------------------------|

e|------------------------|
B|------------------------|
G|---101010101010101010---|
D|---x-x-x-x-x--x-x-x-x---|
A|---8x8x8x8-8xx8x8x8-8---|
E|------------------------|

Verse 2: (same as verse 1)
Pre-Chorus
Chorus

Bridge:
e|-------------------------------------|
B|-------------------------------------|
G|-------------------------------------|
D|---1x1x1x1x1x1x1x1x5x5x5x5x5x5x5x5---| 2x
A|---1x1x1x1x1x1x1x1x5x5x5x5x5x5x5x5---|
E|---1x1x1x1x1x1x1x1x5x5x5x5x5x5x5x5---|

Breakdown

Chorus

===============================================================================
            
Submit corrections

comments powered by Disqus
↑ Back to top | The Cab Tabs for Take My Hand. Lyrics for acoustic guitar and electric guitar. 1 Tablatures and chords are parodies/interpretations of the original songs. You may use it for private study, scholarship, research or language learning purposes only