>
 >
Take My Hand 2

Take My Hand 2 Guitar Tabs

The Cab - Take My Hand 2 chords, tabs, tablatures, lyrics

Guitar lessons | Add/correct | Request | Top 50 tabs Artists:  A B C D E F G H I J K L M N O P Q R S T U V W X Y Z 0-9

Take My Hand 2 Guitar Tabs – The Cab

CD, Sheet music, Poster

Do you like Take My Hand 2? Share with your friends now
Bass TabsChordsTabsTabs v2Ukulele
Hey umm this is my first tab ive seen a video cover of this song
and i thought id share it all with you =)
if there are any mistakes or if you play it another way feel free to

Tuning is: dropped D
your going to have to watch the video for the rhythm

this tab was made according to the video and not how the cab plays it

Legend
x-muted note
/-slide

Intro/Verse 1
e|----------------------------------------|
B|----------------------------------------|
G|----------------------------------------|
D|-5---------8----------3---------1-------|
A|-5---------8----------3---------1-------| 
D|-5---------8----------3---------1-------|
   Calm your nerves now dont worry just breathe

e|----------------------------------------|
B|----------------------------------------|
G|----------------------------------------|
D|-5-------8--------3------------------1--|
A|-5-------8--------3------------------1--| 
D|-5-------8--------3------------------1--|
   Are you sure now dont bother packing just leave

Pre-Chorus
e|--------------------------------------------------------|
B|--------------------------------------------------------|
G|--------------------------------------------------------|
D|-5----------------------8-----------3--------------1----|
A|-5----------------------8-----------3--------------1----| 
D|-5----------------------8-----------3--------------1----|
   Said you wanted change I hope that you remain the same

e|-------------------------------------------------------------|
B|-------------------------------------------------------------|
G|-------------------------------------------------------------|
D|-1------------5---------------------8----------3-------1-----|
A|-1------------5---------------------8----------3-------1-----| 
D|-1------------5---------------------8----------3-------1-----|
   To show that this is not a game lets end this tragedy today

Instrumental
e|--------------------|
B|--------------------|
G|-3/-5/-7/-10--------|
D|-x--x--x--x---------|
A|-1/-3/-5/-8---------| 
D|--------------------|

Chorus 1
e|----------------------------------------|
B|----------------------------------------|
G|----------------------------------------|
D|-1---55-----33----------------8-8-------|
A|-1---55-----33----------------8-8-------| 
D|-1---55-----33----------------8-8-------|
   Now take my hand and we will run away

e|----------------------------------------|
B|----------------------------------------|
G|----------------------------------------|
D|-1----55------33-----------8-8----------|
A|-1----55------33-----------8-8----------| 
D|-1----55------33-----------8-8----------|
   Down to this place that i know

e|----------------------------------------|
B|----------------------------------------|
G|----------------------------------------|
D|-1---55-------33--------8---------------|
A|-1---55-------33--------8---------------| 
D|-1---55-------33--------8---------------|
   How did this night become the enemy?

e|----------------------------------------|
B|----------------------------------------|
G|----------------------------------------|
D|-1--------55-------33-------888---------|
A|-1--------55-------33-------888---------| 
D|-1--------55-------33-------888---------|
   Its over its over its over

Second Instrumental
e|--------------------|
B|--------------------|
G|--------------------|
D|-1--play a few times|
A|-1------------------| 
D|-1------------------|

Verse 2
e|----------------------------------------------------|
B|----------------------------------------------------|
G|----------------------------------------------------|
D|-5--------8-------3---------------1-----------------|
A|-5--------8-------3---------------1-----------------| 
D|-5--------8-------3---------------1-----------------|
   Lay down with me let me hold you baby just breathe

e|----------------------------------------------------|
B|----------------------------------------------------|
G|----------------------------------------------------|
D|-5-------8------3-----------------------1-----------|
A|-5-------8------3-----------------------1-----------| 
D|-5-------8------3-----------------------1-----------|
   This is ending and we will get through eventually

Pre-Chorus
e|--------------------------------------------------------|
B|--------------------------------------------------------|
G|--------------------------------------------------------|
D|-5----------------------8-----------3--------------1----|
A|-5----------------------8-----------3--------------1----| 
D|-5----------------------8-----------3--------------1----|
   Said you wanted change I hope that you remain the same

e|-------------------------------------------------------------|
B|-------------------------------------------------------------|
G|-------------------------------------------------------------|
D|-1------------5---------------------8----------3-------1-----|
A|-1------------5---------------------8----------3-------1-----| 
D|-1------------5---------------------8----------3-------1-----|
   To show that this is not a game lets end this tragedy todayyy

Instrumental
e|--------------------|
B|--------------------|
G|-3/-5/-7/-10--------|
D|-x--x--x--x---------|
A|-1/-3/-5/-8---------| 
D|--------------------|

Chorus 2
e|----------------------------------------|
B|----------------------------------------|
G|----------------------------------------|
D|-1---55-----33----------------8-8-------|
A|-1---55-----33----------------8-8-------| 
D|-1---55-----33----------------8-8-------|
   Now take my hand and we will run away

e|----------------------------------------|
B|----------------------------------------|
G|----------------------------------------|
D|-1----55------33-----------8-8----------|
A|-1----55------33-----------8-8----------| 
D|-1----55------33-----------8-8----------|
   Down to this place that i know

e|----------------------------------------|
B|----------------------------------------|
G|----------------------------------------|
D|-1---55-------33--------8---------------|
A|-1---55-------33--------8---------------| 
D|-1---55-------33--------8---------------|
   How did this night become the enemy?

e|----------------------------------------|
B|----------------------------------------|
G|----------------------------------------|
D|-1--------55-------33-------888---------|
A|-1--------55-------33-------888---------| 
D|-1--------55-------33-------888---------|
   Its over its over its over

e|----------------------------------------|
B|----------------------------------------|
G|----------------------------------------|
D|-1---55-----33----------------8-8-------|
A|-1---55-----33----------------8-8-------| 
D|-1---55-----33----------------8-8-------|
       Take my hand and we will run away

e|----------------------------------------|
B|----------------------------------------|
G|----------------------------------------|
D|-1----55------33-----------8-8----------|
A|-1----55------33-----------8-8----------| 
D|-1----55------33-----------8-8----------|
   Down to this place that i know

e|----------------------------------------|
B|----------------------------------------|
G|----------------------------------------|
D|-1---55-------33---------------8--------|
A|-1---55-------33---------------8--------| 
D|-1---55-------33---------------8--------|
   How did this night become the enemy?

e|---------------------------------|
B|---------------------------------|
G|---------------------------------|
D|-1---55-------33-------8----1----|
A|-1---55-------33-------8----1----| 
D|-1---55-------33-------8----1----|
   Its over its over its over now

Bridge
e|-----------------------------------------------|
B|-----------------------------------------------|
G|-----------------------------------------------|
D|-5-------------------1---------------------(x3)|
A|-5-------------------1-------------------------| 
D|-5-------------------1-------------------------|
   We wont be apart of We wont be apart of this

Chorus 3
Clap your hands to the beat haha

Take my hand and we will run away down to this place that i know
How did this night become the enemy its over its over its over

Outro
e|----------------------------|
B|----------------------------|
G|----------------------------|
D|-1---55-----33----8-8-------|
A|-1---55-----33----8-8-------| 
D|-1---55-----33----8-8-------|
       Take my hand 

e|----------------------------|
B|----------------------------|
G|----------------------------|
D|-1---55-----33----8-8-------|
A|-1---55-----33----8-8-------| 
D|-1---55-----33----8-8-------|
       Take my hand 

e|----------------------------------------|
B|----------------------------------------|
G|----------------------------------------|
D|-1---55-------33---------------8--------|
A|-1---55-------33---------------8--------| 
D|-1---55-------33---------------8--------|
   How did this night become the enemy?

e|---------------------------------|
B|---------------------------------|
G|---------------------------------|
D|-1---55-------33-------8----1----|
A|-1---55-------33-------8----1----| 
D|-1---55-------33-------8----1----|
   Its over its over its over now

Thanks for looking at my tab
more to come =)
-Greg





Comments


Popular The Cab tabs & chords
Diamonds Are Forever Chords
Intoxicated Chords
High Hopes In Velvet Tabs
I Want To Break Free Tabs
One Of Those Nights Tabs
Ill Run 2 Ukulele
Intoxicated Ukulele
La La Ukulele
Lovesick Fool Ukulele
One Of Those Night Ukulele


Song lyrics



↑ Back to top | Tablatures and chords are parodies/interpretations of the original songs. You may use it for private study, scholarship, research or language learning purposes only
© 2014 AZChords.com Contact us | Privacy policy | DMCA | Add/correct tabs | Request tabs | Top 50 tabs