» » »

Take My Hand Bass tabs (ver.1)

Artists:  A B C D E F G H I J K L M N O P Q R S T U V W X Y Z # 

Take My Hand Bass tabs (ver.1)

The Cab
Rating:
4/5 (2 votes)

Hard to play? Try these video lessons and learn fast.
                ---------------------------------------------------------------------------
---------------------------------------------------------------------------


Tuning:Drop 1/2 step


Intro:(volume swell)

F#|-------|
C#|-------|
G#|-------|
D#|-4<<<<-|

Verse:

F#|----------------------------------|
C#|----------------------------------|
G#|---------22-222-2-----------------| x2
D#|-44-444-2--------42-222-20-0-0000-|

F#|----------------------------------|
C#|-------------1--------------------|
G#|---------2222--2------------------|x2 (second time just do 9 0's
D#|-44444444--------222222220-0-0000-|        on D#)

Pre-Chorus:

No Bass

Chorus:

F#|-----------------------------------|
C#|-------------------------------41--|
G#|--------------222----------------2-|
D#|-000-4-4-2-222----000-4-4-2-222----|

F#|-------------------------------444-|
C#|-----------------------------------|
G#|--------------222------------------|
D#|-000-4-4-2-222----000-4-4-2-222----|

Post-Chorus:

F#|--------------------|
C#|--------------------|
G#|--------------------|
D#|-0-0-0000-0-0-00000-|

Verse 2:

F#|----------------------------------|
C#|----------------------------------|
G#|---------22-222-2-----------------| x2
D#|-44-444-2--------42-222-20-0-0000-|

F#|----------------------------------|
C#|----------------------------------|
G#|----------22----------------------| x2 (second time do 2x8 and
D#|-44-----24----12/22----220-0-0000-|     0x16 on d string) 


Chorus 2:

F#|-----------------------------------|
C#|-------------------------------21--|
G#|--------------222----------------2-| x4 (last fill is opens on
D#|-000-4-4-2-222----000-4-4-2-222----|     D with 2's aswell mix around)


Bridge:

Guitar Break

F#|--------------------------|
C#|--------------------------|
G#|--------------------------|
D#|-000000000000000044444444-|

Drum Break (random slides here, have fun!)

Chorus 2

Outro

F#|-----------|
C#|-----------|
G#|-----------|
D#|-0~~~~~~~~-|
            
Hard to play? Try these video lessons and learn fast. | Correct




comments powered by Disqus
↑ Back to top | Tablatures and chords are parodies/interpretations of the original songs. You may use it for private study, scholarship, research or language learning purposes only