» » »

Cavemen Rejoice Tabs (ver.1)

Artists:  A B C D E F G H I J K L M N O P Q R S T U V W X Y Z # 

Cavemen Rejoice Tabs (ver.1)

The Bags
Rating:
5/5 (11 votes)

Hard to play? Try these video lessons and learn fast.
                The Bags
Sharpen Your Sticks

Ok this is my first tab and it is very accurate.
Standard Tuning EADGBE

Part 1
                                             (Harmonics)
                     Repeat 4x         +  +  +   +  +  +
e--------------------------|        |---2--2--2---2--2--2-|
B--------------------------|        |---2--2--2---2--2--2-|
G--------------------------|        |---2--2--2---2--2--2-|
D--------------------------| Then:  |---2--2--2---2--2--2-|
A----2-2--5-4-5--5-5---5-7-|        |---2--2--2---2--2--2-|
E----0-0--3-2-3--3-3-0-3-5-|        |---2--2--2---2--2--2-|

Part 2

                    Repeat 4x
e--------------------------|    |------|
B--------------------------|    |------|
G--------------------------|    |------|
D--------------------------|    |---12-|
A----2-2--5-4-5--5-5---5-7-|    |---10-|
E----0-0--3-2-3--3-3-0-3-5-|    |--0---|


Chorus

                          Repeat 2x
e---------------------------|
B---------------------------|
G---------------------------|
D---------------------------|
A----7--------5-5-5-5h7-7-7-|
E--0---3-5-6-7--------------|


Solo

e--12-12-12-12-12-12-12-12-12-12-10----------------------------7/12-10-7-10-|
B-----------------------------------12-10-12-10-----------------------------|
G-----------------------------------------------12-9-12-12-12-9-------------|
D---------------------------------------------------------------------------|
A---------------------------------------------------------------------------|
E---------------------------------------------------------------------------|

-0------------------------------------------------------12-------------|
---------------------------------12-12-12-12-12-10-12b13--12-10--10-12-|
---4p2p0-4-4-4-4-2-2-2-2---------12-12-12-12-------------------11---12-|
------------------------2p0--2p0---------------------------------------|
---------------------------2----2--------------------------------------|
-----------------------------------------------------------------------|

Part 3

e---------------------------|
B---------------------------|
G--------7--------7---------|
D--------7--------7-4b5b4---|
A--5b6b5-5--5b6b5-5-------5-|
E---------------------------|


Part 4


e------------------|
B------------------|
G------------------|
D------------------|    Repeat 3x
A----5-5-------5-5-|
E--0-----3-2-3-----|

Part 5


e---------------------|
B---------------------|
G---------------------|
D---------------------|
A---5-5-------5-5-5-5-|
E-0-----3-2-3---------|


Part 6


e-----------------------------------------------|
B-----------------------------------------------|
G-----------------------------------------------|
D--7-7-7-7-7-7-7-7--12-12-12-12--10--10--10--10-|
A--5-5-5-5-5-5-5-5--10-10-10-10--8---8---8---8--|
E-----------------------------------------------|


Order:

     Part 1
     Part 1
     Part 2
     Chorus
     Part 1
     Part 2
     Chorus
     Solo
     Part 3
     Part 4
     Part 5
     Part 4
      Part 5
     Part 4
     Part 5
     Part 6
     Part 1
     Part 1


| /  slide up
| \  slide down
| h  hammer-on
| p  pull-off
| ~  vibrato
| +  harmonic
| x  Mute note
| pm palm muted

Keep Rocking
            
Hard to play? Try these video lessons and learn fast. | Correct




comments powered by Disqus
↑ Back to top | Tablatures and chords are parodies/interpretations of the original songs. You may use it for private study, scholarship, research or language learning purposes only