» » »

Cavemen Rejoice Bass tabs (ver.1)

Artists:  A B C D E F G H I J K L M N O P Q R S T U V W X Y Z # 

Cavemen Rejoice Bass tabs (ver.1)

The Bags
Rating:
5/5 (2 votes)

Hard to play? Try these video lessons and learn fast.
                verse
G---------------------|
D---------------------|
A---------------------|
E-0-0-3-2-3-3-3-0-3-5-|

chorus
G----------------------|
D----------------------|
A-77-0-1-2-5--55555555-|
E----------------------|

during solo play this again
G---------------------|
D---------------------|
A---------------------|
E-0-0-3-2-3-3-3-0-3-5-|

after solo play this
G---------------------|
D---------------------|
A---------------------|
E-0-0-0-0-0-0-0-0-0-0-|

bridge
G--------------------|
D--------------------|
A-5-5-----5-5--------|
E----3-2-3---0-------|

when he starts saying a en e or or whatever play this
G---------------------|
D---------------------|
A---------------------|
E-0-0-0-0-0-0-0-0-0-0-|
            
Hard to play? Try these video lessons and learn fast. | Correct




comments powered by Disqus
↑ Back to top | Tablatures and chords are parodies/interpretations of the original songs. You may use it for private study, scholarship, research or language learning purposes only