» » »

Cavemen Rejoice Tabs (ver.2)

Artists:  A B C D E F G H I J K L M N O P Q R S T U V W X Y Z # 

Cavemen Rejoice Tabs (ver.2)

The Bags
Rating:
1/5 (1 vote)

Hard to play? Try these video lessons and learn fast.
                verse/into
-|-------------------------------------------------------------------------|
-|-------------------------------------------------------------------------|
-|-------------------------------------------------------------------------|
-|--2-2----5-4-5---5-5-x--5--7--------2-2----5-4-5---x-x-x--x-x-x----------|
-|--2-2----5-4-5---5-5-x--5--7--------2-2----5-4-5---x-x-x--x-x-x----------|
-|--0-0----3-2-3---3-3-x--3--5--------0-0----3-2-3---x-x-x--x-x-x----------| 
words come in.
                              X3                                  4th time

-|-------------------------------------------------------------------------|
-|-------------------------------------------------------------------------|
-|-------------------------------------------------------------------------|
-|--2-2----5-4-5---5-5-x--5--7--------2-2----5-4-5---x-x-x--x-x-x----------|
-|--2-2----5-4-5---5-5-x--5--7--------2-2----5-4-5---x-x-x--x-x-x----------|
-|--0-0----3-2-3---3-3-x--3--5--------0-0----3-2-3---x-x-x--x-x-x----------|
                              X3                                  4th time

-|-------------------------------------------------------------------------|
-|-------------------------------------------------------------------------|
-|-------------------------------------------------------------------------|
-|--2-2----5-4-5---5-5-x--5--7--------2-2----5-4-5---x-x-------------------|
-|--2-2----5-4-5---5-5-x--5--7--------2-2----5-4-5---x-x-------------------|
-|--0-0----3-2-3---3-3-x--3--5--------0-0----3-2-3---x-x--5b---------------|
                              X3

Chorus
-|-------------------------------------------------------------------------|
-|-------------------------------------------------------------------------|
-|-------------------------------------------------------------------------|
-|-------------------------------------------------------------------------|
-|-----7--------9-9-9-9-9-9-9-9--------------------------------------------|
-|--0-----3-5-6-7-7-7-7-7-7-7-7--------------------------------------------|


very easy solo.

-|-12-12-12-12-12-12-12-12-12-12-10----------------------------7-12-10-7-10-|
-|----------------------------------12-10-12-10-----------------------------|
-|----------------------------------------------12-9-12-12-12-9-------------|
-|--------------------------------------------------------------------------|
-|--------------------------------------------------------------------------|
-|--------------------------------------------------------------------------|

-|------------------------------------------------------12-------------|
-|-------------------------------12-12-12-12-12-10-12b13--12-10--10-12-|
-|-4p2p0-4-4-4-4-2-2-2-2---------12-12-12-12-------------------11---12-|
-|----------------------2p0--2p0---------------------------------------|
-|-------------------------2----2--------------------------------------|
-|---------------------------------------------------------------------|

-|--------------------------------------------------------------------------|
-|--------------------------------------------------------------------------|
-|--------------------------------------------------------------------------|
-|---------------0----------------0-------------------------------------0---|
-|--5b~~~~~~~~---0-----5~~~~~~~~--0-----9~~~~~~~~~~~~~~~~~--5~~~~~~~~---0---|
-|---------------0----------------0-------------------------------------0---|


-|-----------------------------------------------------------------------|
-|-----------------------------------------------------------------------|
-|-----------------------------------------------------------------------|
-|-----------------------------------------------------------------------|
-|------5--5--------5--5-------------------------------------------------|
-|--0--------3-2-3---------0---------------------------------------------|
                             X11

-|------------------------------------------------------------------------|
-|------------------------------------------------------------------------|
-|------------------------------------------------------------------------|
-|------------------------------------------------------------------------|
-|------5--5--------5--5-5-5-5-5-5-5-5--10-10-10-10-10-10-10-10--14-------|
-|--0--------3-2-3--------------------------------------------------------|

then back to verse.
            
Hard to play? Try these video lessons and learn fast. | Correct




comments powered by Disqus
↑ Back to top | Tablatures and chords are parodies/interpretations of the original songs. You may use it for private study, scholarship, research or language learning purposes only