» » »

The Airborne Toxic Event, Sometime Around Midnight Tabs (ver.2)

Artists:  A B C D E F G H I J K L M N O P Q R S T U V W X Y Z # 

Sometime Around Midnight Tabs (ver.2)

The Airborne Toxic Event Tabs
 Rating:
4.4/5 (7 votes)
Sometime Around Midnight lessons Tabs too difficult? Try these video lessons and learn fast
                (Live)
Stabdard tuning
Listen for timing changes throughout song
Capo on 8th fret

Violin starts the intro
e|--33--------------|
B|-----55-33-1-0----|
G|---------------0--|
D|------------------|
A|------------------|
E|------------------|

1st guitar
Listen for the rythm
e|---------------|
B|---------------|
G|--00000000000--|
D|---------------|
A|---------------|
E|---------------|

2nd guitar comes in
e|-------------------|
B|-------------------|
G|-------------------| 2x
D|--000000000000000--|
A|--222233322220000--|
E|--333333333333333--|

Then 2nd guitar plays 
e|--------------0--0-0--|
B|----0--0-0--11111111--|
G|--00000000--00000000--|
D|--22222222--22222222--|
A|--22222222--33333333--|
E|--00000000------------|

While 2nd guitar is playing the 2nd part 1st guitar plays
e|---------------------------------|
B|--33333333-----------------------|
G|-----------5555555-4-0000000000--|
D|---------------------------------|
A|---------------------------------|
E|---------------------------------|

Play that for awhile then a shreding part

1st guitar plays this
e|--3333~------------------|
B|-------555p3-33p1-1p0h1--|
G|-------------------------|
D|-------------------------|
A|-------------------------|
E|-------------------------|

2nd guitar plays outro
e|--------------------|
B|-----------------0--|
G|-----00----00----0--|
D|-----00----00-0000--|
A|--------------2222--|
E|--33----33----3333--|
            
Submit corrections

comments powered by Disqus
↑ Back to top | The Airborne Toxic Event Tabs for Sometime Around Midnight. Lyrics for acoustic guitar and electric guitar. Tablatures and chords are parodies/interpretations of the original songs. You may use it for private study, scholarship, research or language learning purposes only