» » »

The Airborne Toxic Event, Something New Tabs (ver.2)

Artists:  A B C D E F G H I J K L M N O P Q R S T U V W X Y Z # 

Something New Tabs (ver.2)

The Airborne Toxic Event Tabs
 Rating:
4/5 (6 votes)
Something New lessons Tabs too difficult? Try these video lessons and learn fast
1
                (Intro)
Something New
The Airborne Toxic Event 
The Airborne Toxic Event 


E|------------------------------------------------------|
B|------------------------------------------------------|
G|------------------------------------------------------|
D|------------------------------------------------------|
A|-5-5-5-5--------5-5--555--------5-5-5-----------------|
E|----------7-5-----------7-5-7--------7-5--------------|


E|------------------------------------------------------|
B|------------------------------------------------------|
G|------------------------------------------------------|
D|------------------------------------------------------|
A|-5-5--555--------5-5-5-7---5-5-55-5-7-5-7-------------|
E|-----------7-5-7--------------------------------------|


E|------------------------------------------------------|
B|------------------------------------------------------|
G|------------------------------------------------------|
D|------------------------------------------------------|
A|-5-5-5--------5-5-5-7---5-5-55-5-7-5-7----------------|
E|-------7-5-7------------------------------------------|
            
Submit corrections

comments powered by Disqus
↑ Back to top | The Airborne Toxic Event Tabs for Something New. Lyrics for acoustic guitar and electric guitar. 1 Tablatures and chords are parodies/interpretations of the original songs. You may use it for private study, scholarship, research or language learning purposes only