» » »

The Airborne Toxic Event, Numb Tabs (ver.1)

Artists:  A B C D E F G H I J K L M N O P Q R S T U V W X Y Z # 

Numb Tabs (ver.1)

The Airborne Toxic Event Tabs
 Rating:
4/5 (4 votes)
Numb lessons Tabs too difficult? Try these video lessons and learn fast
1
                -----------------------------------------------------------------------------
-----------------------------------------------------------------------------

This is my first guitar  TAB, so it may have a few mistakes. Feel free to post
corrections, comment, and Like!!Hope you enjoy, its an awesome sauce song!

Tuning:Standard


Intro:
1st guitar
e|-11-11-11-11-11-11-11-11-11-11-11-11-11-11-11-11-10-10-10-10-10-10-10-10-8-8-8-8-8-8-8-8--|
B|------------------------------------------------------------------------------------------|
G|------------------------------------------------------------------------------------------|
D|------------------------------------------------------------------------------------------|
A|------------------------------------------------------------------------------------------|
E|------------------------------------------------------------------------------------------|
(4x)

2nd guitar. This part comes in after the first part has repeated twice
e|--------------------------------------------------------------------------------|
B|------------------------------------0-0-3-0-3-0---------------------------------|
G|------------------------0-0-4-0-4-0---------------------------------------------|
D|-0-0-4-0-4--0-0-4-0-4-0---------------------------------------------------------|
A|--------------------------------------------------------------------------------|
E|--------------------------------------------------------------------------------|
(4x)

1st guitar. This part comes in after the 2nd guitar has repeated twice
e|-3-3-3--2-2-2--1-1-1--0-0-0-----------------------------------------------|
B|-----------------------------3-3-3--2-2-2--1-1-1--0-0-0-------------------|
G|--------------------------------------------------------------------------|
D|--------------------------------------------------------------------------|
A|--------------------------------------------------------------------------|
E|--------------------------------------------------------------------------|
(2x)


Verse 1:
this part plays during the instrumental along with rhythm guitar
2nd guitar
e|--------------------------------------------------------------------------|
B|------------------------------------0-0-3-0-3-0---------------------------|
G|------------------------0-0-4-0-4-0---------------------------------------|
D|-0-0-4-0-4--0-0-4-0-4-0---------------------------------------------------|
A|--------------------------------------------------------------------------|
E|--------------------------------------------------------------------------|
(2x)


Prechorus:
1st guitar
e|-3-3-3-3-2-2-2-2-1-1-1-1-0-0-0-0------------------------------------------|
B|--3-3-3-3-2-2-2-2-1-1-1-1-0-0-0-0-----------------------------------------|
G|--------------------------------------------------------------------------|
D|--------------------------------------------------------------------------|
A|--------------------------------------------------------------------------|
E|--------------------------------------------------------------------------|

e|-3-3-3-3-2-2-2-2-1-1-1-1-3~-----------------------------------------------|
B|--3-3-3-3-2-2-2-2-1-1-1-1-------------------------------------------------|
G|--------------------------------------------------------------------------|
D|--------------------------------------------------------------------------|
A|--------------------------------------------------------------------------|
E|--------------------------------------------------------------------------|


Chorus:
2nd guitar
e|-3-3-3--2-2-2--1-1-1--0-0-0-----------------------------------------------|
B|-----------------------------3-3-3--2-2-2--1-1-1--0-0-0-------------------|
G|--------------------------------------------------------------------------|
D|--------------------------------------------------------------------------|
A|--------------------------------------------------------------------------|
E|--------------------------------------------------------------------------|
(2x)


Verse 2:
1st guitar
e|-11-11-11-11-11-11-11-11-11-11-11-11-11-11-11-11-10-10-10-10-10-10-10-10-8-8-8-8-8-8-8-8--|
B|------------------------------------------------------------------------------------------|
G|------------------------------------------------------------------------------------------|
D|------------------------------------------------------------------------------------------|
A|------------------------------------------------------------------------------------------|
E|------------------------------------------------------------------------------------------|
(4x)

2nd guitar. This part comes in after the first guitar's part has repeated twice(again)
e|--------------------------------------------------------------------------|
B|------------------------------------0-0-3-0-3-0---------------------------|
G|------------------------0-0-4-0-4-0---------------------------------------|
D|-0-0-4-0-4--0-0-4-0-4-0---------------------------------------------------|
A|--------------------------------------------------------------------------|
E|--------------------------------------------------------------------------|
(2x)



Prechorus:
1st guitar
e|-3-3-3-3-2-2-2-2-1-1-1-1-0-0-0-0------------------------------------------|
B|--3-3-3-3-2-2-2-2-1-1-1-1-0-0-0-0-----------------------------------------|
G|--------------------------------------------------------------------------|
D|--------------------------------------------------------------------------|
A|--------------------------------------------------------------------------|
E|--------------------------------------------------------------------------|
(2x)

e|-3-3-3-3-2-2-2-2-1-1-1-1-3~-----------------------------------------------|
B|--3-3-3-3-2-2-2-2-1-1-1-1-------------------------------------------------|
G|--------------------------------------------------------------------------|
D|--------------------------------------------------------------------------|
A|--------------------------------------------------------------------------|
E|--------------------------------------------------------------------------|


Chorus: 
1st guitar
e|-3-3-3--2-2-2--1-1-1--0-0-0---------------------------------*3------------|
B|-----------------------------3-3-3--2-2-2--1-1-1--0-0-0-------------------|
G|--------------------------------------------------------------------------|
D|--------------------------------------------------------------------------|
A|--------------------------------------------------------------------------|
E|--------------------------------------------------------------------------|
(5x)

2nd guitar. This part comes in after the first guitar's part has repeated twice(AGAIN)
e|--------------------------------------------------------------------------|
B|------------------------------------0-0-3-0-3-0---------------------------|
G|------------------------0-0-4-0-4-0---------------------------------------|
D|-0-0-4-0-4--0-0-4-0-4-0-----------------------------*0--------------------|
A|--------------------------------------------------------------------------|
E|--------------------------------------------------------------------------|
(2x)

*only play on last time
            
Submit corrections

comments powered by Disqus
↑ Back to top | The Airborne Toxic Event Tabs for Numb. Lyrics for acoustic guitar and electric guitar. 1 Tablatures and chords are parodies/interpretations of the original songs. You may use it for private study, scholarship, research or language learning purposes only