>
 >
Happiness Is Overrated

Happiness Is Overrated Guitar Tabs

The Airborne Toxic Event - Happiness Is Overrated chords, tabs, tablatures, lyrics

Guitar lessons | Add/correct | Request | Top 50 tabs Artists:  A B C D E F G H I J K L M N O P Q R S T U V W X Y Z 0-9

Happiness Is Overrated Guitar Tabs – The Airborne Toxic Event

CD, Sheet music, Poster

Do you like Happiness Is Overrated? Share with your friends now
TabsTabs v2
E-7------------7----5-------------2------------7---7---------------7--9-9-9-|
B-7------------9----5-----------2-------------7-----7--------------9--9-9-9-|
G-7------------7----6-----------2------------7-------7-------------7--7-7-7-|
D-7------------9----5-----------2-----------7---------7------------9--9-9-9-|
A-9---5-6-6s7--7----7-----------4----------9-----------9--5-6-6s7--7--7-7-7-|
E-7-----------------5--5-4-3-2--2----2s7--7-------------7-------------------|


HERE'S THE CHORDS FOR THE VERSE W/O STRUM PATTERNS

E---------------5------2-|
B-7------9------5------2-|
G-7------9------6------2-|
D-7------9------7------4-|
A-5------7------7------4-|
E---------------5------2-|


I'M SORRY I NEARLY LOST MY HEAD PART

E-5---5---5---5---5---5---5---5---2---2---2---2---2---2---2---2---|
B-5---5---5---5---5---5---5---5---2---2---2---2---2---2---2---2---|
G-6---6---6---6---6---6---6---6---2---2---2---2---2---2---2---2---|
D-7---7---7---7---7---7---7---7---4---4---4---4---4---4---4---4---|
A-7---7---7---7---7---7---7---7---4---4---4---4---4---4---4---4---|
E-5---5---5---5-0-5---5-0-5-0-5-0-2---2---2---2-0-2---2-0-2-0-2-0-|



THEN BACK TO

E---------5---2-|
B-7---9---5---2-|
G-7---9---6---2-|
D-7---9---7---4-|
A-5---7---7---4-|
E---------5---2-|


THEN THE WEIRD INSTRUMENTAL PART (W/O STRUMMING PATTERN)

E-5-----7-----5-----7-----2-----4-----2-----4-|
B-5-----5-----5-----5-----2-----2-----2-----2-|
G-6-----6-----6-----6-----2-----2-----2-----2-|
D-7-----X-----7-----X-----4-----X-----4-----X-|
A-7-----7-----7-----7-----4-----4-----4-----4-|
E-5-----5-----5-----5-----2-----2-----2-----2-|

THEN THE RIFF INSTRUMENTAL PART (W/O STRUMMING PATTERN)

E-5-------------5---------------2-------------2-------------|
B-5-------------5---------------2-------------2-------------|
G-6-------------6---------------2-------------2-------------|
D-7-------------7--5S7----------4------7------4------7------|
A-7------7------7------7--------4--7S9---9P7--4--7S9---9P7--|
E-5--7S9---9P7--5--------9P7----2-------------2-------------|



WELL THAT ABOUT COVERS IT, CHEERS

J





Comments


Popular The Airborne Toxic Event tabs & chords
All At Once Chords
Innocence 1 Chords
Parson Red Heads Chords
This Losing 2 Chords
All For A Woman Tabs
All I Ever Wanted Intro 1 Tabs
Papillon 2 Tabs
Something You Own Tabs
All For A Woman Ukulele
Timeless Ukulele


Song lyrics



↑ Back to top | Tablatures and chords are parodies/interpretations of the original songs. You may use it for private study, scholarship, research or language learning purposes only
© 2014 AZChords.com Contact us | Privacy policy | DMCA | Add/correct tabs | Request tabs | Top 50 tabs