>
 >
The Game

The Game Guitar Tabs

Tesla - The Game chords, tabs, tablatures, lyrics

Guitar lessons | Add/correct | Request | Top 50 tabs Artists:  A B C D E F G H I J K L M N O P Q R S T U V W X Y Z 0-9

The Game Guitar Tabs – Tesla

CD, Sheet music, Poster

Do you like The Game? Share with your friends now
Tabs


----------------------------------------------------
Tune: Drop C#

Intro
 Gtr. 1
|---------------------------------------------------------------|
|---------------------------------------------------------------|
|---------------------------------------------------------------|
|----------------------------------------------------(play x2)--|
|-0-------------------3h5-3-------------------------------------|
|-0-------------------3h5-3-----------------------3---3---------|
|Gtr. 2
|--------------------------------------------------------------|
|--------------------------------------------------------------|
|------------------------------------------------(play x2)-----|
|-----3-5-------3-5-------------3-5-------3-5------------------|
|-3h5-------3h5-------------3h5-------3h5----------------------|
|--------------------------------------------------------------|


Chorous
 Gtr. 1
|--------------------------------------------------------------|
|--------------------------------------------------------------|
|--------------------------------------------------------------|
|--------------------------------------------------------------|
|---------------------3h5-3------------------------------------|
|-0---------0---------3h5-3---0---------0---------3---3--------|
|Gtr. 2
|--------------------------------------------------------------|
|--------------------------------------------------------------|
|--------------------------------------------------------------|
|-----3-5-------3-5---------------3-5-------3-5----------------|
|-3h5-------3h5-------3h5-3---3h5-------3h5--------------------|
|---------------------3h5-3-----------------------3---3--------|


Verse
|----------------------------------------------|
|----------------------------------------------|
|----------------------------------------------|
|----------------------------------------------|
|-0---0---0---0-3-5-2-3---0---0---0---3--------|
|-0---0---0---0-3-5-2-3---0---0---0---3--------|

|----------------------------------------------|
|----------------------------------------------|
|----------------------------------------------|
|----------------------------------------------|
|-0---0---0---0-3-5-2-3---0---0---0---6--------|
|-0---0---0---0-3-5-2-3---0---0---0---6--------|

 Gtr. 1
|----------------------------------------------|
|----------------------------------------------|
|----------------------------------------------|
|----------------------------------------------|
|-0---0---0---0-3-5-2-3---0---0---0---3--------|
|-0---0---0---0-3-5-2-3---0---0---0---3--------|
|Gtr. 2
|----------------------------------------------|
|-------------------------------------6--------|
|-------------------------------------8fb------|
|----------------------------------------------|
|-0---0---0---0-3-5-2-3---0---0---0------------|
|-0---0---0---0-3-5-2-3---0---0---0------------|

|----------------------------------------------|
|----------------------------------------------|
|----------------------------------------------|
|----------------------------------------------|
|-0---0---0---0-3-5-2-3---0---0---0---6---6----|
|-0---0---0---0-3-5-2-3---0---0---0---6---6----|


Pre Chorous
|-------------------------------------------------------|
|-------------------------------------------------------|
|-------------------------------------------------------|
|---14---12---14---17---14---14---12---10---10---12-----|
|-0----0----0----0----0----0----0----0----0----0--------|
|-------------------------------------------------------|

|-------------------------------------------------------|
|-------------------------------------------------------|
|-------------------------------------------------------|
|---14---12---14---17---14---14---12-3------5-----------|
|-0----0----0----0----0----0----0----3------5-----------|
|------------------------------------3------5-----------|


Solo 1 (play with verse)
|--------------------------------------------------------------|
|-------------------------------------13fb-------13------------|
|--------------------------------------------------------------|
|--------------------------------------------------------------|
|-3fb---------3fb------------dive------------------------------|
|----------------------------0---------------------------------|


|--------------------------------------------------------------|
|-12-13-10-----------------------------------------------------|
|-------------10fb------------10-12-7-8fb----------------------|
|--------------------------------------------------------------|
|--------------------------------------------------------------|
|--------------------------------------------------------------|


Bridge
 Gtr. 1
|-----------------------------------------------------------|
|-----------------------------------------------------------|
|-11-11--------14-14---------9-9---------4-4----------------|
|-------....----------....--------....--------....----------|
|-9--9---------12-12---------7-7---------2-2----------------|
|-----------------------------------------------------------|

 Gtr. 2
|-----------------------------------------------------------|
|-----------------------------------------------------------|
|-7-7----------10-10---------5-5---------12-12--------------|
|-7-7---....---10-10--....---5-5--....---12-12---....-------|
|-5-5----------8--8----------3-3---------10-10--------------|
|-----------------------------------------------------------|


Solo 2 (play with bridge)
|--------------------------------------------------------------|
|-17fb-17fb----17fbr-15-17---15----15-17fb-17fb----------------|
|-------------------------------16-----------------------------|
|--------------------------------------------------------------|
|--------------------------------------------------------------|
|--------------------------------------------------------------|

|---------------------------------------------------------------|
|-17fbr-15-17--17-15-17--------15-17-15----15-17-17fbr-15---15--|
|-----------------------17--------------17---------------17-----|
|---------------------------------------------------------------|
|---------------------------------------------------------------|
|---------------------------------------------------------------|

|--------------------------------------------------------------|
|------15------15------15--------------------------------------|
|-15fb----15fb----15fb----12----12-12-12fbr-11-12fb------------|
|--------------------------------------------------------------|
|--------------------------------------------------------------|
|--------------------------------------------------------------|

|--------------------------------------------------------------|
|-10-13-10------10-------------10----10------------------------|
|----------12fb----12fbr-10-12----12-----1212fbr-10-----------|
|--------------------------------------------------------------|
|--------------------------------------------------------------|
|--------------------------------------------------------------|

|---------------------------------------------------------------|
|---------------------------------------------------------------|
|-10-12-12fbr-10-12--------12-12fbr-10-12-10-12p10\9-9p7-10h12--|
|-------------------14------------------------------------------|
|---------------------------------------------------------------|
|---------------------------------------------------------------|

|--------------------------------------8------8------8-----------|
|---------------------------------11fb---11fb---11fb---12fbr-10--|
|-12p10-10p9-9p7-7h9p7-------7h10--------------------------------|
|----------------------------------------------------------------|
|----------------------------------------------------------------|
|----------------------------------------------------------------|

|---------------------------------------------------------------|
|-12-10----10----10-12fbr-10----10----10------------------------|
|-------12----12-------------12----12----12\10-10-10\9-9\7-9-7--|
|---------------------------------------------------------------|
|---------------------------------------------------------------|
|---------------------------------------------------------------|

|--------------------------------------------------------------|
|------8--------------------13-13-13---------------------------|
|-9fbr---10-9-7-10p9p7-12fb----------12fbr-10-12-10------------|
|--------------------------------------------------------------|
|--------------------------------------------------------------|
|--------------------------------------------------------------|

|--------------------------------------------------------------|
|-13--13-12-10---10----------8------------------7--------------|
|-------------------12-10fb----10-9----9fb----9---7-9fb--------|
|--------------------------------------------------------------|
|--------------------------------------------------------------|
|--------------------------------------------------------------|

|--------------------------------------------------------------|
|-----------10-------------------------------------------------|
|-7-9fb-9fb----9fbr---7----7------7----9fb--7---7---7----------|
|-----------------------10-----10---10--------9---9------------|
|--------------------------------------------------------------|
|--------------------------------------------------------------|

|--------------------------------------------------------------|
|--------------------------------------------------------------|
|-9fb--7---7---7-------7------7--------------------------------|
|--------9---9-----7fb---7fb----7fbr-5-------------------------|
|--------------------------------------7-7fbr--5---------------|
|------------------------------------------------9-------------|

|-10---10-10---10-10---10-10---10-10---10----|
|-13fb----13fb----13fb----13fb----13fb-------|
|--------------------------------------------|
|--------------------------------------------|
|--------------------------------------------|
|--------------------------------------------|

|-13---13---13---13---13---13---13---13-15fb---|
|-16fb-16fb-16fb-16fb-16fb-16fb-16fb-----------|
|----------------------------------------------|
|----------------------------------------------|
|----------------------------------------------|
|----------------------------------------------|

|-15-13-15-15fbr-13-15-13-15-15----------15-17fb-----|
|-------------------------------13-15----------------|
|----------------------------------------------------|
|----------------------------------------------------|
|----------------------------------------------------|
|----------------------------------------------------|

|-17fb-17fbr-17-15--17-15--14--------14------------------------|
|-----------------------------17fb------17fbr-15-17fb-17fb-----|
|--------------------------------------------------------------|
|--------------------------------------------------------------|
|--------------------------------------------------------------|
|--------------------------------------------------------------|

|--------------------------------------------------|
|-17fbr-15-17--15----15-17hb-17hb-17hbr--15-17-15--|
|-----------------16-------------------------------|
|--------------------------------------------------|
|--------------------------------------------------|
|--------------------------------------------------|

|--------------------------------------------------------------|
|------15--------15-------15-------15-------------15h18p15-----|
|-17fb----17fb------17fb-----17fb-----17fb---17fb----------17--|
|--------------------------------------------------------------|
|--------------------------------------------------------------|
|--------------------------------------------------------------|

|------------------------------------------------------------------|
|-15-18-18fb---18---15h18p15------15-------------------------------|
|----------------------------17fb----17-14-14\12-12-12-12\10-12p10-|
|------------------------------------------------------------------|
|------------------------------------------------------------------|
|------------------------------------------------------------------|

|------------------------------------------------------------13fb--|
|---------13p10-10-10-10\8------8------13--------------------------|
|-12fb---------------------10fb---12fb-----14-14\12-12-10-12-------|
|------------------------------------------------------------------|
|------------------------------------------------------------------|
|------------------------------------------------------------------|

|-13---10h13p10----10----------------------------------------------|
|---------------13----13p10----10----10----------------------------|
|---------------------------12----12----12fbr--10----10------------|
|-------------------------------------------------12----12---------|
|------------------------------------------------------------------|
|------------------------------------------------------------------|

|---------------------------------------------|
|--------------------------------------17fb---|
|-12\10-10\9-9\7-5/7-7/9-9/10-10/12-14--------|
|---------------------------------------------|
|---------------------------------------------|
|---------------------------------------------|

|------------------------------------------------------------------|
|------------------------------------13--------------13------------|
|-11-11----11-------------------16hb----16hb-14-16hb----16hb-16hb--|
|-------14----14fbr-12-12-14-12------------------------------------|
|------------------------------------------------------------------|
|------------------------------------------------------------------|

|---------------------------------------------------13-----|
|-17hb-15--15-13-15-----18-15----15----15-18fb---15--------|
|-----------------------------------17---------------------|
|----------------------------------------------------------|
|----------------------------------------------------------|
|----------------------------------------------------------|

|-15fbr-13----13----13-15-17b(1.5)-17-17-17-17r-17-17b(1.5)--------|
|----------15----15------------------------------------------------|
|------------------------------------------------------------------|
|------------------------------------------------------------------|
|------------------------------------------------------------------|
|------------------------------------------------------------------|

 Gtr. 1
|----------------------------|
|----------------------------|
|----------------------------|
|-0--------------------------|
|-0--------------------------|
|-0--------------------------|
|Gtr. 2
|-17-------------19hbr-------|
|-17fb-----------------------|
|----------------------------|
|----------------------------|
|----------------------------|
|----------------------------|





Comments


Popular Tesla tabs & chords
Down Fo Boggie Bass Tabs
Little Suzi 2 Bass Tabs
Love Song Bass Tabs
Signs Bass Tabs
The Way It Is Bass Tabs
The Way It Is 1 Bass Tabs
Forever More 4 Tabs
Lady Luck Tabs
One Day At A Time Tabs
Love Song Ukulele


Song lyrics



↑ Back to top | Tablatures and chords are parodies/interpretations of the original songs. You may use it for private study, scholarship, research or language learning purposes only
© 2014 AZChords.com Contact us | Privacy policy | DMCA | Add/correct tabs | Request tabs | Top 50 tabs