» » »

Only You Tabs (ver.1)

Artists:  A B C D E F G H I J K L M N O P Q R S T U V W X Y Z # 

Only You Tabs (ver.1)

Tesla
Rating:
0/5 (0 votes)

Hard to play? Try these video lessons and learn fast.
                Tune a half step down
this is tha 2nd time ive tabbed this song...tha 1st time was way off ssssso here it is


Intro:
Eb------0-------0-------------------------0------0------0--------0-----|
Bb------0-------0-------------------------0------0------0--------0-----|
Gb--------------------------0-----0------------------------------------|
Db----4-------2----------0---------------------4------2--------2-------|
Ab--2-------0--------0h2-------------0h2-----2------0--------2---------|
Eb-----------------3-----------3---------------------------0-----------|


Verses:
Eb------0-------0-------------------------0------0------0--------0---------------|
Bb------0-------0-------------------------0------0------0--------0--1--1-1-1-1---|
Gb--------------------------0-----0---------------------------------0--0-0-0-0---|
Db----4-------2----------0---------------------4------2--------2----2--2-2-2-2---|
Ab--2-------0--------0h2-------------0h2-----2------0--------2------3--3-3-3-3---|
Eb-----------------3-----------3---------------------------0---------------------|

------0-------0-------------------------0------0------0--------0------------|
------0-------0-------------------------0------0------0--------0---1--------|
--------------------------0-----0----------------------------------0--------|
----4-------2----------0---------------------4------2--------2-----2--------|
--2-------0--------0h2-------------0h2-----2------0--------2-------3--------|
-----------------3-----------3---------------------------0------------------|


Chorus 1:
Eb------0-------0-------------------------0------0------0--------0-----|
Bb------0-------0-------------------------0------0------0--------0-----|
Gb--------------------------0-----0------------------------------------|
Db----4-------2----------0---------------------4------2--------2-------|
Ab--2-------0--------0h2-------------0h2-----2------0--------2---------|
Eb-----------------3-----------3---------------------------0-----------|

Solo:
Eb----------------------------------------------------------------|
Bb----------------------------------------------------------------|
Gb-------6-7-6---------------6-7-7s9--11-11~----------------------|
Db--7s9---------7-7s9---7s9---------------------------------------|
Ab----------------------------------------------------------------|
Eb----------------------------------------------------------------|

Eb----------------------------------------------------------------|
Bb--12-10-12-------------------------------------------10s12------|
Gb-----------11-12---11----9---------------6-7-7s9-11-------------|
Db----------------------12---11-12--7s9-9-------------------------|
Ab----------------------------------------------------------------|
Eb----------------------------------------------------------------|
            
Hard to play? Try these video lessons and learn fast. | Correct




comments powered by Disqus
↑ Back to top | Tablatures and chords are parodies/interpretations of the original songs. You may use it for private study, scholarship, research or language learning purposes only