» » »

Need Your Lovin Tabs (ver.1)

Artists:  A B C D E F G H I J K L M N O P Q R S T U V W X Y Z # 

Need Your Lovin Tabs (ver.1)

Tesla
Rating:
0/5 (0 votes)

Hard to play? Try these video lessons and learn fast.
                This would be my first tab on the sight if it gets through so I hope you like it.
               - c-radrunner


Intro
 D5 G5 A5    B5  C5 D5         D     G  A                 G     C9  D
|-------------------------------------------------------------------2------|
|---------------------------------------2--2-2---3-3p2--------------3------|
|---------------------------------------2--2-2---2-2--------0-----0-2------|
|-4--5--7-----9--10-12----------0-----0-2--2-2---2-2-------0-----2--0------|
|-5--5--7-----9--10-12---------0-----2--4--4-4--4-------0-2---2-3----------|
|-2--3--5-----7--8--10--------2---2-3--------------------------------------|

Verse 1
          D                     G
I'll be lovin' you come morning, day to day, dust to dawn

        C         G            F5        G5     D
   Feelin' you're the reason I won't be leavin' so
|-------0---------------------------------------2--------------------------|
|-------1--------------------0------------------3--------------------------|
|-------0--------------------0------------------2--------------------------|
|------2---------------0-----0--3--------5------0--------------------------|
|-0-2-3-----------2-------------3--------5------0--------------------------|
|-------------------------------1--------3------2--------------------------|

D                       G
Love you in the evening, supper time and afternoon

      C      G         F5  G5      D
Your days of happiness beside the month of June
|-------0--------------------------2--------------------------|
|-------1-----------0--------------3--------------------------|
|-------0-----------0--------------2--------------------------|
|------2--------0---0---3---5------0--------------------------|
|-0-2-3------2----------3---5------0--------------12/0--------|
|-----------------------1---3------2--------------------------|


Pre-Chorus
(A5)            (G5)   (D5)  (A5)           (G5)   (D5)
|--------------------------------------------------------------------------|
|--------------------------------------------------------------------------|
|------------5/------4--7----------------5/------4--7-7-7------------------|
|-7--------5-5/--5--5---7-----7--------5-5/--5--5---7-7-7------------------|
|-7-------7------5-5----5-----7-------7------5-5----5-5-5------------------|
|-5--5-7-8-------3------------5--5-7-8-------3-----------------------------|

Chorus
 X2                                   1. ________________  2.____________
|--------------------------------------|-2--3-3p2--3-3p2---|--------------|
|-----------2--2-2---3-3p2-------------|-3--3-3----3-3-----|-3------------|
|-----------2--2-2---2-2--------0-----0|-2--2-2----2-2-----|-2------------|
|---0-----0-2--2-2---2-2-------0-----2-|-0-----------------|-0------------|
|--0-----2--4--4-4--4-------0-2---2-3-------------------------------------|
|-2---2-3-----------------------------------------------------------------|

Verse 2

D                      G
January, and in March, February, June
     (C)  (G)   (F5)    (G5)    (D)
Any day beside of that couldn't be too soon
|-------0------------------------2--------------------------|
|-------1-----0------------------3--------------------------|
|-------0-----0------------------2--------------------------|
|------2----0-0--3--------5------0--------------------------|
|-0-2-3----2-----3--------5------0--------------------------|
|----------------1--------3------2--------------------------|

D                        G
My life without you babe is a heart that's torn
     (C)  (G)   (F5)     (G5)   (D)
Season of love for you, storm without a warn
|-------0------------------------2--------------------------|
|-------1-----0------------------3--------------------------|
|-------0-----0------------------2--------------------------|
|------2----0-0--3--------5------0--------------------------|
|-0-2-3----2-----3--------5------0--------------12/0--------|
|----------------1--------3------2--------------------------|

Pre-Chorus
(A5)            (G5)   (D5)  (A5)           (G5)   (D5)
|--------------------------------------------------------------------------|
|--------------------------------------------------------------------------|
|------------5/------4--7----------------5/------4--7-7-7------------------|
|-7--------5-5/--5--5---7-----7--------5-5/--5--5---7-7-7------------------|
|-7-------7------5-5----5-----7-------7------5-5----5-5-5------------------|
|-5--5-7-8-------3------------5--5-7-8-------3-----------------------------|

Chorus
 X2                                   1. ________________  2.____________
|--------------------------------------|-2--3-3p2--3-3p2---|-2------------|
|-----------2--2-2---3-3p2-------------|-3--3-3----3-3-----|-3------------|
|-----------2--2-2---2-2--------0-----0|-2--2-2----2-2-----|-2------------|
|---0-----0-2--2-2---2-2-------0-----2-|-0-----------------|-0------------|
|--0-----2--4--4-4--4-------0-2---2-3------------------------0------------|
|-2---2-3----------------------------------------------------2------------|


Bridge x3    and then this
|--------|----------------------------------------------------------------|
|--------|----------------------------------------------------------------|
|-4----7-|-4-2------------------------------------------------------------|
|-4----7-|-2-2------------------------------------------------------------|
|-2----5-|-2-0------------------------------------------------------------|
|--------|----------------------------------------------------------------|

Solo
|--------------------------------------------------10---------------------|
|------------------------------------------------10--10-13b15~-15r13p10---|
|---------------------------9h10p9p7--7/----12b14-------------------------|
|-5h7-------------------7-9----------9------------------------------------|
|------7-5-7~---5~--7s9---------------------------------------------------|
|-------------7-----------------------------------------------------------|

|----------------10------------------------13h14p13-----13-13b14-14b15----|
|--------------10---------------------13-15--------13-15------------------|
|-12b14---12b14----12-12b14-11~--12s14------------------------------------|
|-------------------------------------------------------------------------|
|-------------------------------------------------------------------------|
|-------------------------------------------------------------------------|

|-15b17-13-----------10---------------------------------------------------|
|---------15~------10--10-13b15-15r13p10----------------------------------|
|-------------12b14---------------------12b14-14r12p10--------------------|
|-----------------------------------------------------12-10----------12~~-|
|----------------------------------------------------------12-11-10-------|
|------------------------------------------------------------------13-----|

Pre-Chorus
(A5)            (G5)   (D5)  (A5)           (G5)   (D5)
|--------------------------------------------------------------------------|
|--------------------------------------------------------------------------|
|------------5/------4--7----------------5/------4--7-7-7------------------|
|-7--------5-5/--5--5---7-----7--------5-5/--5--5---7-7-7------------------|
|-7-------7------5-5----5-----7-------7------5-5----5-5-5------------------|
|-5--5-7-8-------3------------5--5-7-8-------3-----------------------------|

Chorus
 X2                                     |----------------------------------------2--3-3p2--3-3p2--|
|-----------2--2-2---3-3p2---------------3--3-3----3-3--------------------------------------------|
|-----------2--2-2---2-2--------0-----0--2--2-2----2-2--------------------------------------------|
|---0-----0-2--2-2---2-2-------0-----2---0--------------------------------------------------------|
|--0-----2--4--4-4--4-------0-2---2-3-------------------------------------------------------------|
|-2---2-3-----------------------------------------------------------------------------------------|

Another solo
|-------------------------------------------------------------------------|
|-------------------------------------------------------------------------|
|------------------------------------------------2--2~-0------------------|
|------------------------2b3-0h2----------0---2h4-------4-5b7-4-5b7r5-4~--|
|-2s5s2-0-2s5s2-0-2s5s2-0-------3r2-0--0h2--------------------------------|
|-------------------------------------------------------------------------|

|-------------------------------------------------------------------------|
|-------------------------------------------------------------------------|
|-----------------------------------------------------------------2-------|
|----0---------0---------------------------2b3-2~-----------0--2h4--------|
|-0h2---0-0-0h2----2s5s2-0-2s5s2-0-2s5s2-0--------3r2-0--0h2--------------|
|-------------------------------------------------------------------------|

|------------------------------------------|
|-------------------3----------------------|
|-2~-0--------------2----------------------|
|-----4-5b7-4-2b3r2-0----------------------|
|-------------------0----------------------|
|------------------------------------------|

Outro
|----2-5-2-5-5-0-5-3---3-3---3-3---3-3-0--2------------------------------|
|---3-----3-----2---3-0---3-0---3-0--3-3--3------------------------------|
|--2---------------------------------2-0--2------------------------------|
|-0----------------------------------0-2--0------------------------------|
|--------------------------------------3--0------------------------------|
|-----------------------------------------2------------------------------|
            
Hard to play? Try these video lessons and learn fast. | Correct




comments powered by Disqus
↑ Back to top | Tablatures and chords are parodies/interpretations of the original songs. You may use it for private study, scholarship, research or language learning purposes only